Between The Buried And Me - Need For Repetition Chords & Tabs

 

Need For Repetition Chords & Tabs

Between The Buried And Me Chords & Tabs

Version: 1 Type: Tab 0 ratings
1 star 2 stars 3 stars 4 stars 5 stars
comments

Need For Repetition Tab

   
Tunning: C# F# B E G# C#


             x4
|-----------|-----------------------------------||
|-----------|------6/12-------------------------||
|-----------|.------------------5-4-4-----------.|
|-----------|.-----3/9--------------------------.|
|-2---------|---2---------------3-2-2---2-2-2-3-||
|-0---------|---0-------0---------------0-1-0-1-||
                                        pm.....
 x5
|----------------||
|----------------||
|.---------------.|
|.---------------.|
|--2-----2-2-2-3-||
|--0-----0-1-0-1-||
         pm.....

 x5
|-----------------------------------||
|------6/12-------------------------||
|.------------------5-4-4-----------.|
|.-----3/9--------------------------.|
|---2---------------3-2-2---2-2-2-3-||
|---0-------0---------------0-1-0-1-||
                            pm.....

 x5
|-----------------||
|-----------------||
|.-----\----------.|
|.-----\----------.|
|--2------2-2-2-3-||
|--0------0-1-0-1-||
         pm.....

 x5
|-----------------------------------||
|------6/12-------------------------||
|.------------------5-4-4-----------.|
|.-----3/9--------------------------.|
|---2---------------3-2-2---2-2-2-3-||
|---0-------0---------------0-1-0-1-||
                            pm.....


|------------||
|------------||
|------------||
|------------||
|-2----------||
|-0----------||

|-------------------------------------------------------------
|-------------------------------------------------------------
|-------------------------------------------------------------
|-------------------------------------------------------5h7h8-
|------4h6h7-----------4h6h7------4h6h7------------4h6h7------
|-3h5h6-----------3h5h6------3h5h6------------3h5h6-----------
  pm...........................................................
[ Tab from: http://www.guitartabs.cc/tabs/b/between_the_buried_and_me/need_for_repetition_tab.html ]
 Guitar 1                                x2
|-------------------|-----------------------------------||
|-------------------|-----------------------------------||x4
|.------------------|.---------------------------------.||
|.------------------|.---------------------------------.||
|-------4h6h7-------|-------4h6h7------4h6h7------------||
|--3h5h6------------|--3h5h6------3h5h6-----------------||

 Guitar 2                                x2
|---------------------------|-----------------------------------||
|---------------------------|-----------------------------------||x4
|.------------------6h8h9---|.---------------------------6h8h9-.||
|.-------------5h7h8--------|.----------------------5h7h8------.||
|---------4h6h7-------------|------------------4h6h7------------||
|----3h5h6------------------|-------------3h5h6-----------------||

 Guitar 1
|------------------------------------------------------------------||
|------------------------------------------------------------------||
|------------------------------------------------------------------||
|----------------------------------5h7h8---------------------------||
|------------4h6h7------------4h7h8--------------------------------||
|-------3h5h6------------3h5h6-------------------------------------||

 Guitar 2
|------------------------------------------------------------------||
|------------------------------------------------------------------||
|------------------------------------------------------------------||
|------------------------------------------------------------------||
|-3-4-2------------3-4-2-----------------3-4-2-3-4-2-3-4-2-3-4-2---||
|-5-6-4------------5-6-4-----------------5-6-4-5-6-4-5-6-4-5-6-4---||
                                                           pm....
 Both guitars.
|----------------------------------||
|----------------------------------||
|----------------------------------||
|----------------------------------||
|--0---0---0---0---0---0---0---0---||
|-3-3-2-2-3-3-2-2-3-3-2-2-8-8-7-7--||

 xalot
|-------------------------------------||
|-----------------11------------------||
|----------------9-------0------0-----||
|------5----5--/9-------7------4-4----||
|--7--7-6--6-----------5------5-------||
|-------------------------------------||
 (Clean, distorted, clean.)

(Random pick scrapes and noises at the end with the
bass playing the above riff.)
Comments