Betty Blowtorch - I Wanna Be On Epitaph Chords & Tabs

 

I Wanna Be On Epitaph Chords & Tabs

Betty Blowtorch Chords & Tabs

Version: 1 Type: Tab

I Wanna Be On Epitaph Tab

I Wanna Be On Epitaph

d|---------------|
a|---------------|
f|-----9--11--7--|
c|--7--9--11--7--|
g|--7--7---9--5--|
C|--7------------|  Verse/Chorus
[ Tab from: http://www.guitartabs.cc/tabs/b/betty_blowtorch/i_wanna_be_on_epitaph_tab.html ]
d|------------------------------------------------------------------------------------|
a|--10~-9----9--10~-9-----10~-9----9--10~-9-----10-10-9-9-----------------------------|
f|--------12----------12~-------12----------12~-----------11-11-9-9-7-7---------------|
c|----------------------------------------------------------------------11-11-9-9-----|
g|--------------------------------------------------------------------------------12--|
C|------------------------------------------------------------------------------------|

http://www.bettyblowtorch.net