Better Than Ezra - Wwoz Chords & Tabs

 

Wwoz Chords & Tabs

Better Than Ezra Chords & Tabs

Version: 1 Type: Tab 0 ratings
1 star 2 stars 3 stars 4 stars 5 stars
comments

Wwoz Tab

   
WWOZ - from "Friction, Baby"

 	G
E|------------------3------------------|
B|--------3-----------------3-------3--|
G|-------------------------------------|
D|-----------------------0-------------|
A|------------2----------------0h2-----|
E|-3-----------------------------------|

C(9)
E|------------------3--------3-----------|
B|-------3----------------------------3--|
G|---------------------------------------|
D|-------------2--------2--------0-------|
A|--3------------------------------------|
E|---------------------------------------|
(Repeat this through the verse)

Am7
E|--0---------0------------------------------------0---------------|
B|--1---------------1----1----------------------------1------------|
G|--0------------------2---------------2-------0-------------0-----|
D|--2----2-------------------------------------------------2-------|
A|--0--------------------------------------------------------------|
E|-----------------------------------------------------------------|
                                "Don't  _    wake me,"
C                     G/B
E|---------------------------------------------------------|
B|----------1------------------------3---------------------|
G|---------------0-----------0-------------0---------------|
D|-----2---------------------------------------------------|
A|--3------------------2-----------------------------------|
E|---------------------------------------------------------|
"I think I'm in a dream,"
	Am7               D       G5
E|-----0-----------------0h2----3--------3------------------|
B|-----1-----------------3------3--------3------------------|
G|-----0------------------------0--------0------------------|
D|-----2------------------------0--------0------------------|
A|-----0---------------------------------x------------------|
E|---------------------------------------3------------------|
                                                          "Now sleeping is...
[ Tab from: http://www.guitartabs.cc/tabs/b/better_than_ezra/wwoz_tab.html ]
       D       Dsus2	   Am                C
E|--2-----2p0---------------0---------------0-----------------|
B|--3--------------3--------1---------------1-----------------|
G|--2--------------2--------2---------------0-----------------|
D|--0--------------0--------2---------------2-----------------|
A|--------------------------0---------------3-----------------|
E|------------------------------------------------------------|
"...easy _                           I used  _  to lay in bed...
	D	G5                                     D                        Am
E|---0h2---------3------------------------------2----------2p0------0--|
B|---3-----------3------------------------------3-------------------1--|
G|---2-----------0------------------------------2-------------------2--|
D|---0-----------0------------------------------0-------------------2--|
A|---------------x--------------------------------------------------0--|
E|---------------3-----------------------------------------------------|
"...for   _    hours _ I've waited a life _ time, now maybe I'll learn

D   C(9)                     G/B
Let go of your fear, let's grow old together
Am                 Dsus2   D                         C(9)
Find a place along the way, let's reel though the years,
     G/B
Each makes the other better
                                 Am
But what thoughts can I call allies
                  D            C(9)                G D Am
When this circle of ribs keeps working on its own?

(Mandolin part)
E|----14-----12-------------------------------------------------------------|
B|----------------15---13---12-------------12-----11-----------------12-----|
G|------------------------------------------------------------14------------|
D|--------------------------------------------------------------------------|
A|--------------------------------------------------------------------------|
E|--------------------------------------------------------------------------|

E|----------------------------------------15-----14-------17---14----------|
B|--------------12---13---15---12------------------------------------15/17-|
G|--(12)--14---------------------------------------------------------------|
D|-------------------------------------------------------------------------|
A|-------------------------------------------------------------------------|
E|-------------------------------------------------------------------------|

E|---------------------------------------------------------------------------|
B|--(17)----------13---12------------------------------------------13---15---|
G|------------------------------14----------------------14-------------------|
D|---------------------------------------------------------------------------|
A|---------------------------------------------------------------------------|
E|---------------------------------------------------------------------------|

E|-10/12----14----15-----15/17-----19--------------------------------------|
B|------------------------------------------13--12-------------------------|
G|----------------------------------------------------14--12---11----------|
D|-----------------------------------------------------------------14---12-|
A|-------------------------------------------------------------------------|
E|-------------------------------------------------------------------------|

That should just about do it. If you have any questions, email me at jnites02@hotmail.com


~kevin
Comments