Better Than Ezra - At The Stars Chords & Tabs

 

At The Stars Chords & Tabs

Better Than Ezra Chords & Tabs

Version: 2 Type: Tab 0 ratings
1 star 2 stars 3 stars 4 stars 5 stars
comments

At The Stars Tab

   
Group: Better Than Ezra
Song: "At The Stars"
Track: 03
Album: How Does Your Garden Grow?
Tabbed by: Russell See (gotoman@mindspring.com)
http://members.home.net/the-anchor/
STANDARD TUNING: (eBGDAE)


Verse:
       Aadd9        E5/Esus4/E5
                             *
e--0-0-0-0-0-0-0--------------------
B--0-0-0-0-0-0-0--9-9-9-9-9-10p9-9--  
G:-6-6-6-6-6-6-6--9-9-9-9-9--9-9-9-:  * NOTE - That note isn't really there
D:-7-7-7-7-7-7-7--9-9-9-9-9--9-9-9-:    by guitar but it sounds cool with
A--7-7-7-7-7-7-7--7-7-7-7-7--7-7-7--    the piano.
E--5-5-5-5-5-5-5--------------------


         F#               A          B


e-------------------------------------------
B-------------------------------------------
G--------------------------------4-4-4-4-4--
D--4-4-4-4-4-4-4-4-4--7-7-7-7-7--4-4-4-4-4--
A--4-4-4-4-4-4-4-4-4--7-7-7-7-7--2-2-2-2-2--
E--2-2-2-2-2-2-2-2-2--5-5-5-5-5-------------Chorus:

       A           E           F#/G#

[ Tab from: http://www.guitartabs.cc/tabs/b/better_than_ezra/at_the_stars_tab_ver_2.html ]
e-------------------------------------------
B-------------------------------------------
G:--------------9-9-9-9--------------------:
D:-7-7-7-7-7-7--9-9-9-9--4-4-4-4-4-4-4-/-6-:
A--7-7-7-7-7-7--7-7-7-7--4-4-4-4-4-4-4-/-6--
E--5-5-5-5-5-5-----------2-2-2-2-2-2-2-/-4--


       A           E          F#            A      B


e-----------------------------------------------------
B-----------------------------------------------------
G---------------9-9-9-9-------------------------------
D--7-7-7-7-7-7--9-9-9-9--4-4-4-4-4-4-4--7-7-7-7-7--9--
A--7-7-7-7-7-7--7-7-7-7--4-4-4-4-4-4-4--7-7-7-7-7--9--
E--5-5-5-5-5-5-----------2-2-2-2-2-2-2--5-5-5-5-5--7--Bridge:

      D          C#         B          A
e------------------------------------------
B------------------------------------------
G:-7-7-7-7-7--6-6-6-6---------------------:
D:-7-7-7-7-7--6-6-6-6--9-9-9-9-9-9-9--7-7-:
A--5-5-5-5-5--4-4-4-4--9-9-9-9-9-9-9--7-7--
E----------------------7-7-7-7-7-7-7--5-5--


   F# G#   A   B  A  B  C#  D#   E
                             *
e------------------------------------------
B------------------------------------------  
G------------------------6-/-8-/-9...------ * NOTE - Once again, that note doesn't
D--4-/-6-/-7-/-9--7-/-9--6-/-8-/-9...------   really exist, but his voice appears
A--4-/-6-/-7-/-9--7-/-9--4-/-6-/-7...------   to hit it so it sounds better added.
E--2-/-4-/-5-/-7--5-/-7--------------------
Comments