Better Than Ezra - A Lifetime Chords & Tabs

 

A Lifetime Chords & Tabs

Better Than Ezra Chords & Tabs

Version: 1 Type: Tab 0 ratings
1 star 2 stars 3 stars 4 stars 5 stars
comments

A Lifetime Tab

   
----------------------------------------------------------------------------
			     A Lifetime - Better Than Ezra
----------------------------------------------------------------------------
Tabbed by: R3doubt
Email:ResidentAdolescent@Hotmail.com

Tuning: Standard (EADGBe)

Verse and Chorus
       F  C  G*--Keep strumming the G chord
e|-----1--0 3-------------------------------------------------------------|
B|-----1--1-0---1-0-------------------------------------------------------|
G|-----2--0--0-------2-0---------------------------------------------------|
D|-----3--2--0-------------------------------------------------------------|
A|--------3--2------(0)----------------------------------------------------|
E|-----------3-------------------------------------------------------------|
*Play e string with your pinky, E string with your ring finger, and the A string with
the middle finger.  This allows you to use your index finger to play on the B string.
Use your middle finger to hit the G string (hence the open A string).
[ Tab from: http://www.guitartabs.cc/tabs/b/better_than_ezra/a_lifetime_tab.html ]
F
Allie woke up
C
Eight am
G*
Graduation day...

Pre-Chorus:
    Dm       F   G
e|---1-------1---3-----|
B|---3-------1---3-----|
G|---2-------2---0-----|
D|---0--0-2--3---0-----|
A|---------------2-----|
E|---------------3-----|

Dm
And you were standing on the hood of your car

F                             G  
Singing out loud when the sun up


Chorus:
      F
And I know it wasn't right
C              G*
But it felt so good...

Dm                      F
Three and half minutes
G
It felt like a lifetime

Repeat Verse

Play these chords barred:
E   D   E  D    E# E   F  G
Are you sitting in the light

G               E     D    E D
Or combing your hair again

E#  E          F   G
And talking in rhymes

E   D   E  D    E# E   F  G
Are you sitting in the light

Repeat Verse/Chorus as needed etc...
Comments