Bethlehem - Vargtimmen Chords & Tabs

 

Vargtimmen Chords & Tabs

Bethlehem Chords & Tabs

Version: 1 Type: Tab 0 ratings
1 star 2 stars 3 stars 4 stars 5 stars
comments

Vargtimmen Tab

Author/Artist: BETHLEHEM
Title: VARGTIMMEN
Album: DARK METAL
Transcribed by: JAMIN WILLIAMSON
Email: KERNOUS@RELAPSECULT.COM

TUNE DOWN ONE WHOLE STEP.LISTEN TO SONG FOR TIMING.
KEY:
pm = palm mute
v = vibrato 
^ = harmonic
h = hammer on

-|--------------------------------------------------------------------|
-|--------------------------------------------------------------------|
-|--------------------------------------------------------------------|
-|-6-6-6----6-66----6-6-6----6-66----6-6-6----6-66----------7-7-7-3-3-|
-|-4-4-4----4-44----4-4-4----4-44-^--4-4-4----4-44----2-3-2-5-5-5-1-1-|
-|-4-4-4-4v-4-44-4v-4-4-4-3v-4-44-3v-4-4-4-4v-4-44-4v-0-1-0-5-5-5-----|
   . . .    . pm    . . .    . ..    . . .    . ..          .   RIFF #1       

-|-----------------------------------------------------|
-|-----------------------------------------------------|
-|--------------------h--------------------------------|
-|---7---7-8-7---6---6-7-6---2---2-3-2-----------4-----|
-|-5---5-------4---4-------0---0---------6-----4---4---|
-|-------------------------------------4---4-2-------2-|
   RIFF #2 CLEAN TONE                                                         
[ Tab from: http://www.guitartabs.cc/tabs/b/bethlehem/vargtimmen_tab.html ]
-|---------------------------------------------------------|
-|---------------------------------------------------------|
-|------------------------------^--------------------------|
-|---7----7-----6v---6----6-----2v----2----2-3-2-----------|
-|-5---55---8-7---44---44---7-0----00---00-------6-6-6-4---|
-|-----------------------------------------------4-4-4-2---|
       pm         ..   ..          ..   ..           .  RIFF #3               

-|---------------------------|
-|---------------------------|
-|---------------------------|
-|6-6-6-4----6-6-6-4----3----|
-|6-6-6-4----6-6-6-4----3----|
-|4-4-4-2----4-4-4-2----1----|
      .          .   RIFF #4                                                  

-|-----------------------------------------------------------|
-|-----------------------------------------------------------|
-|-----------------------------------------------------------|
-|-6-6-6-4-----h-----4-----h-----4-----h-----6-6-6-4----3----|
-|-6-6-6-4-44-4-5-44-4-44-4-5-44-4-44-4-5-44-6-6-6-4----3----|
-|-4-4-4-2-22-----22-2-22-----22-2-22-----22-4-4-4-2----1----|
       .   pm     ..   ..     ..   ..     ..     .  RIFF #5 

BASS INTRO
RIFF #1 X 4
RIFF #2 X 3  
RIFF #3 X 3
RIFF #4 X 4
RIFF #5 X2 TILL FADE
Comments