Bethlehem - Du Solst Dich Toten Chords & Tabs

 

Du Solst Dich Toten Chords & Tabs

Bethlehem Chords & Tabs

Version: 1 Type: Tab 0 ratings
1 star 2 stars 3 stars 4 stars 5 stars
comments

Du Solst Dich Toten Tab

Author/Artist: BETHLEHEM
Title: DU SOLLST DICH TOTEN
Album: S.U.I.Z.I.D.
Transcribed by: JAMIN WILLIAMSON
Email: KERNOUS@RELAPSECULT.COM
TUNE DOWN ONE WHOLE STEP.LISTEN TO SONG FOR TIMING.
KEY:
h = hammer on
p = pull off

-|------------------------------------------------------------------|
-|------------------------------------------------------------------|
-|------------------------------------------------------------------|
-|-22222222222222222222----2222333311111111111111111111111111111111-|
-|---------------------3333-----------------------------------------|
-|------------------------------------------------------------------|
  riff #1 tremolo picked                                                      

-|--------------------|
-|--------------------|
-|--------------------|
-|-445555555555555555-|
-|--------------------|
-|--------------------|
  bridge #1 trem.pick                                                           

-|------------------------------------------------------------------|
-|------------------------------------------------------------------|
-|------------------------------------------------------------------|
-|-0000000000004444000000000000000066666666666666665555555555554444-|
-|------------------------------------------------------------------|
-|------------------------------------------------------------------|
   riff #2 tremolo picked                                                     

-|----------------------------------------------------------------------------
-|----------------------------------------------------------------------------
-|-------------------------------------------------------------333333336666---
-|-111111114444444444444444111133334444111133330000000000000000---------------
-|----------------------------------------------------------------------------
-|----------------------------------------------------------------------------
   riff #3 tremolo picked                                                     

-------------------------------------------------|
-------------------------------------------------|
-666666666666333355556666333355552222222222222222|
-------------------------------------------------|
-------------------------------------------------|
-------------------------------------------------|
                                  riff #3 end                                 

-|------------------------------------------------------------------|
-|---2---2--3---------2--2--1--------2---2--3---------2--2--1---7---|
-|------------------------------------------------------------------|
-|-4----4-4--5-4-4-44---4-4---3-4--4----4-4--5-4-4-44---4-4---3-----|
-|------------------------------------------------------------------|
-|------------------------------------------------------------------|
    interlude #1 clean tone                                                   
[ Tab from: http://www.guitartabs.cc/tabs/b/bethlehem/du_solst_dich_toten_tab.html ]
-|---------------------------h---h-------------------------------h---h------|
 |-2-1-2-3-2-1-2------------1-2-4-5-6--2-1-2-3-2-1-2------------1-2-4-5-7---|
-|---------------2---2-2---2-------------------------2---2-2---2------------|
-|-4---------------44-4-4-4------------4---------------44-4-4-4-------------|
-|---------------0-----------------------------------0----------------------|
-|--------------------------------------------------------------------------|
                                                         end interude #1      

-|---------------------------------------h--p------p--------------------------
-|-19-21--21-19-21-22-21-19-24--22-19--19-21-14--15-14--14-15-17-15-14-15-----
-|----------------------------------------------------------------------------
-|----------------------------------------------------------------------------
-|----------------------------------------------------------------------------
-|----------------------------------------------------------------------------
   solo                                                                       

---------------------------------------h--p-----p-------------------------|
-19--21--21-19-21-22-21-19-24--22-19-19-21-14-15-14--14-15-17-15-14-18----|
--------------------------------------------------------------------------|
--------------------------------------------------------------------------|
--------------------------------------------------------------------------|
--------------------------------------------------------------------------|
                                          end solo                            

-|------------------------------|
-|-2----6-6-2----2----2----2----|
-|------------------------------|
-|------------------------------|
-|-4----8-8-4-------------------|
-|---------------3----2----3----|
   interlude #2 clean tone                                                    

-|----------------------------------------------------------------------------
-|----------------------------------------------------------------------------
-|----------------------------------------------------------------------------
-|----------------------------------------------------------------------------
-|-444444444444444888884444444444444444444410101010101010101010999999999999---
-|----------------------------------------------------------------------------
       riff #4                                                                

------------------|
------------------|
------------------|
------------------|
-1010101010101010-|
------------------|
       riff #4 end                                                                     

-|----------------------------------------------------------------------------
-|----------------------------------------------------------------------------
-|----------------------------------------------------------------------------
-|3333333333333366666333333333333333333331010101010101010101010888888888888---
-|----------------------------------------------------------------------------
-|----------------------------------------------------------------------------
           riff #5                                                            

--------------------------| ----
--------------------------| ----
--------------------------| ----
-101010101010101010101010-| -8--
--------------------------| ----
--------------------------| ----
           riff #5 end       end note

riff #1 x 3                                                                  
bridge #1 
riff #2 x 2 
riff #3 x 1
interlude #1
solo
riff #3 x 1
interlude #2 x 2
ambience
interlude #2 x 1
riff #4 x 2
riff #5 x 2
end note
Comments