Beth Gibbons - Funny Time Of Year Chords & Tabs

 

Funny Time Of Year Chords & Tabs

Beth Gibbons Chords & Tabs

Version: 1 Type: Tab 0 ratings
1 star 2 stars 3 stars 4 stars 5 stars
comments

Funny Time Of Year Tab

   
Beht Bibbons (the lovely voice of portishead) & RustinMan
Funny Time Of Year
Album: out of season

         C                Em7                Em7
e------------------|------------------|------------------|
H--------1---------|--------3---------|-------3----------|
G------0-------0---|------0-------0---|-----0-------0----|
D----2-------2-----|----2-------2-----|---2-------2------|
A--3-------3-------|------------------|------------------|
E------------------|--0-------0-------|-0-------0--------|

These silent words of conversation 
                   Hold me now this adulation


       A#                   A#                Am7
e------------------|------------------|------------------|
H------------------|------------------|--------1---------|
G--------3---------|--------3---------|------0-------0---|
D------3-------3---|------3-------3---|----2-------2-----|
A----5-------5-----|----5-------5-----|--0-------0-------|
E--6-------6-------|--6-------6-------|------------------|

See me now                            Oh it's easy now

       A#                   A#                E
e------------------|------------------|------------------|
H------------------|------------------|------------------|
G--------3---------|--------3---------|--------1---------|
D------3-------3---|------3-------3---|------2-------2---|
A----5-------5-----|----5-------5-----|----2-------2-----|
E--6-------6-------|--6-------6-------|--0-------0-------|

Falling like a silent paper Holding on to what may be

       F*                  E                   Hm (Bm)
e------------------|------------------|------------------|
H------------------|------------------|--------3---------|
G--------0---------|--------1---------|------4-------4---|
D------0-------0---|------2-------2---|----4-------4-----|
A----3-------3-----|----2-------2-----|--2-------2-------|
E--1-------1-------|--0-------0-------|------------------|

                                     And I only hear

      Dm   Dadd9           Hm (Bm)          Dm   Dadd9
e--1-----1-0-------|------------------|---1----1--0------|
H------3-------3---|--------3---------|------3-------3---|
G----2-------2-----|------4-------4---|----2-------2-----|
D--0-------0-------|----4-------4-----|--0-------0-------|
A------------------|--2-------2-------|------------------|
E------------------|------------------|------------------|

                   Only hear the rain

      Dm   Dadd9      Dm
e---1----1--0------|--1---------------|
H------3-------3---|--3---------------|
G----2-------2-----|--2---------------|
D--0-------0-------|--0---------------|
A------------------|------------------|
E------------------|------------------|
                                                     Am7 (575555)
                               And many rains turn to rivers
Dm7 (x57565)
Winter's here
                Am7
And there ain't nothing gonna change
Dm7                              Am7    Am7* (575557)
The winds are blowing telling me all I hear
          Dm7
Oh it's a funny time of year
              Am7             A (575655)
There'll be no blossom on the trees
[ Tab from: http://www.guitartabs.cc/tabs/b/beth_gibbons/funny_time_of_year_tab.html ]
C (8 10 10 9 x x)    C* (8 10 10 9 8 8)                                    
Turning now I see no reason
C                    C*
The voice of love so out of season
  Em7 (022030)
I need you now
But you can't see me now
    Ais (x13331)
I'm travelling with no destination
                            E
Still hanging on to what may be

G (355433)             Am7  Am7*
  It's a funny time of year
Dm7
I can see
               Am7  Am7*
There'll be no blossom on the trees
Dm7                  fill1         Am7         Am7*
And time spent cryin' has taken me in this year
          Dm7
Oh it's a funny time of year
            Am7        fill2
There'll be no blossom on the trees


solo (quite simple, but I'm too lazy)


Dm7
Falling like a silent paper
Holding on to what may be
             Am7
It's a funny time of year
Dm7
I can see
               Am7
There'll be no blossom on the trees
    Dm7                             Am7       
And time spent cryin' has taken me in this year
       Dm7
It's a funny time of year
                      Am7       
I can see no blossom no blossom on the trees
Dm7
Falling like a silent paper
Holding on to what may be
              Am7
It's a funny time of year
Dm7
I can see
                Am7
There'll be no blossom on the trees
Dm7                              Am7                                        
 And time spent cryin' has taken me in this year
Am7                   Dm7
It's a funny time of year
                                                     Am7
I can see no blossom no blossom on the treeeeeeeeeeeeeeees


Dm7  Am7 Dm7


OUTRO

  Dm   (with noisy background)
e-----|--3-1-0---------|
H-----|--------3-1-0---|
G-----|----------------|
D-...-|--0-------------|
A-----|----------------|
E-----|----------------|

   Dm                                Am    A5
e--1------1------|--3-1-0---------|----------------|
H----3------3----|--------3-1-0---|--1-----0-------|
G------2------2--|----------------|----2-----2-----|
D--0------0------|--0-------------|------2-----2---|
A----------------|----------------|--0-----0-------|
E----------------|----------------|----------------|

   Am    Asus4      Am    A5         A5/G  A5/F#
e----------------|----------------|----------------|
H--1-----3-------|--1-----0-------|--0-----0-------|
G----2-----2-----|----2-----2-----|----2-----2-----|
D------2-----2---|------2-----2---|------2-----2---|
A--0-----0-------|--0-----0-------|----------------|
E----------------|----------------|--3-----2-------|

     ???                   Dm             Am
e---3-----3------|--3----------1-0-----|----------------|
H-----0-----0----|----0----3-------3---|----------------|
G-------2-----2--|------2----2-------2-|--2-------------|
D---2-----2------|--0------0-----------|--2-------------|
A----------------|---------------------|--0-------------|
E----------------|---------------------|----------------|

fill1 (not exact)
------------------|
------8p6---------|
------------------|
----7-------------|
--5-5-------------|
------------------|

fill2
     Am7         A7
--------------5---|
---5----------5---|
---5-----5-5--6---|
---5---5---5--5---|
---7-7-----7--7---|
---5----------5---|


ok. that's it. somehow. responsible for any mistakes: daniel wuttej...
if you have some corrections mail to libadani@yahoo.de thanx.
Comments