Berzerker - The Berzerker Chords & Tabs

 

The Berzerker Chords & Tabs

Berzerker Chords & Tabs

Version: 1 Type: Tab 0 ratings
1 star 2 stars 3 stars 4 stars 5 stars
comments

The Berzerker Tab

   
THE BERZERKER


Band : The Berzerker
Song : Reality
Album : The Berzerker
Website : www.TheBerzerker.com


Gtr I (A E A D G A) - 'Berzerker Guitar'



 4/4
  Gtr I
  W          W          W          W
|----------|----------|----------|------||
|----------|----------|----------|------||
|----------|----------|----------|------||
|----------|----------|----------|------||
|----------|----------|----------|------||
|----------|----------|----------|------||


  S S S S S S S S S S S S  S  S  S  S   S S S S S S S S S S S S S S S S
|-------------------------------------|-----------------------------------|
|-------------------------------------|-----------------------------------|
|-------------------------------------|-----------------------------------|
|-8-8-8-8-9-9-9-9---------------------|-------------8-8-------------------|
|-----------------6-6-6-6-10-10-10-10-|-----------------6-6-6-6-4-4-4-4---|
|-------------------------------------|-6-6-6-6-7-7-----------------------|


  S S S S S S S S  S  S  S  S S S S S   S S S S S S S S S S S S S S S S
|-------------------------------------|-----------------------------------|
|-------------------------------------|-----------------------------------|
|-------------------------------------|-----------------------------------|
|---------9-9-9-9---------------------|-------------8-8-------------------|
|-7-7-7-7---------10-10-10-10-7-7-7-7-|-----------------6-6-6-6-4-4-4-4---|
|-------------------------------------|-6-6-6-6-6-6-----------------------|


  S S S S S S S S S S S S  S  S  S  S   S S S S S S S S S S S S S S S S
|-------------------------------------|-----------------------------------|
|-------------------------------------|-----------------------------------|
|-------------------------------------|-----------------------------------|
|-8-8-8-8-9-9-9-9---------------------|-------------8-8-------------------|
|-----------------6-6-6-6-10-10-10-10-|-----------------6-6-6-6-4-4-4-4---|
|-------------------------------------|-6-6-6-6-7-7-----------------------|


  S S S S S S S S  S  S  S  S S S S S   S S S S S S S S S S S S S S S S
|-------------------------------------|-----------------------------------|
|-------------------------------------|-----------------------------------|
|-------------------------------------|-----------------------------------|
|---------9-9-9-9---------------------|-------------8-8-------------------|
|-7-7-7-7---------10-10-10-10-7-7-7-7-|-----------------6-6-6-6-4-4-4-4---|
|-------------------------------------|-6-6-6-6-6-6-----------------------|


  S S S S S S S S S S S S S S S S   S S S S S S S S  S  S  S  S  S  S  S  S
|---------------------------------|-------------------------------------------|
|---------------------------------|-------------------------------------------|
|---------------------------------|-------------------------------------------|
|-8-8-8-8-8-8-8-8-9-9-9-9-9-9-9-9-|-------------------------------------------|
|---------------------------------|-6-6-6-6-6-6-6-6-10-10-10-10-10-10-10-10---|
|---------------------------------|-------------------------------------------|


  S S S S S S S S S S S S S S S S   S S S S S S S S S S S S S S S S
|---------------------------------|-----------------------------------|
|---------------------------------|-----------------------------------|
|---------------------------------|-----------------------------------|
|-------------------------8-8-8-8-|-----------------------------------|
|---------------------------------|-6-6-6-6-6-6-6-6-4-4-4-4-4-4-4-4---|
|-6-6-6-6-6-6-6-6-7-7-7-7---------|-----------------------------------|


  S S S S S S S S S S S S S S S S   S S S S S S S S  S  S  S  S  S  S  S  S
|---------------------------------|-------------------------------------------|
|---------------------------------|-------------------------------------------|
|---------------------------------|-------------------------------------------|
|-8-8-8-8-8-8-8-8-9-9-9-9-9-9-9-9-|-------------------------------------------|
|---------------------------------|-6-6-6-6-6-6-6-6-10-10-10-10-10-10-10-10---|
|---------------------------------|-------------------------------------------|


  S S S S S S S S S S S S S S S S   S S S S S S S S S S S S S S S S
|---------------------------------|-----------------------------------|
|---------------------------------|-----------------------------------|
|---------------------------------|-----------------------------------|
|-------------------------8-8-8-8-|-----------------------------------|
|---------------------------------|-6-6-6-6-6-6-6-6-4-4-4-4-4-4-4-4---|
|-6-6-6-6-6-6-6-6-7-7-7-7---------|-----------------------------------|


  W          +W           +W           +W
|----------|------------|------------|--------|
|----------|------------|------------|--------|
|-7--------|-(7)--------|-(7)--------|-(7)----|
|-8--------|-(8)--------|-(8)--------|-(8)----|
|-8--------|-(8)--------|-(8)--------|-(8)----|
|-6--------|-(6)--------|-(6)--------|-(6)----|


  S S S S S S S S S S S S  S  S  S  S   S S S S S S S S S S S S S S S S
|-------------------------------------|-----------------------------------|
|-------------------------------------|-----------------------------------|
|-------------------------------------|-----------------------------------|
|-8-8-8-8-9-9-9-9---------------------|-------------8-8-------------------|
|-----------------6-6-6-6-10-10-10-10-|-----------------6-6-6-6-4-4-4-4---|
|-------------------------------------|-6-6-6-6-7-7-----------------------|


  S S S S S S S S  S  S  S  S S S S S   S S S S S S S S S S S S S S S S
|-------------------------------------|-----------------------------------|
|-------------------------------------|-----------------------------------|
|-------------------------------------|-----------------------------------|
|---------9-9-9-9---------------------|-------------8-8-------------------|
|-7-7-7-7---------10-10-10-10-7-7-7-7-|-----------------6-6-6-6-4-4-4-4---|
|-------------------------------------|-6-6-6-6-6-6-----------------------|


  S S S S S S S S S S S S S S S S   S S S S S S S S  S  S  S  S  S  S  S  S
|---------------------------------|-------------------------------------------|
|---------------------------------|-------------------------------------------|
|---------------------------------|-------------------------------------------|
|-8-8-8-8-8-8-8-8-9-9-9-9-9-9-9-9-|-------------------------------------------|
|---------------------------------|-6-6-6-6-6-6-6-6-10-10-10-10-10-10-10-10---|
|---------------------------------|-------------------------------------------|


  S S S S S S S S S S S S S S S S   S S S S S S S S S S S S S S S S
|---------------------------------|-----------------------------------|
|---------------------------------|-----------------------------------|
|---------------------------------|-----------------------------------|
|-------------------------8-8-8-8-|-----------------------------------|
|---------------------------------|-6-6-6-6-6-6-6-6-4-4-4-4-4-4-4-4---|
|-6-6-6-6-6-6-6-6-7-7-7-7---------|-----------------------------------|


  H    H     H    H      H    H      H    H
|----------|-----------|-----------|-----------|
|----------|-----------|-----------|-----------|
|------3---|------5----|------3----|-----------|
|-4----3---|-2----5----|-4----3----|-2----5----|
|-4----1---|-2----3----|-4----1----|-2----5----|
|-2--------|-0---------|-2---------|-0----3----|


  PM--------------------------------------------------------------|
  S S S S S S S S S S S S S S S S   S S S S S S S S S S S S S S S S
|---------------------------------|-----------------------------------|
|---------------------------------|-----------------------------------|
|---------------------------------|-----------------------------------|
|---------------------------------|-----------------------------------|
|---------------------------------|-----------------------------------|
|-2-2-2-2-2-2-2-2-6-6-6-6-6-6-6-6-|-0-0-0-0-0-0-0-0-3-3-3-3-3-3-3-3---|


  PM----|   PM----|        PM----|    PM----|
  S S S S Q S S S S Q      S S S S Q  S S S S Q
|-----------------------|--------------------------|
|-----------------------|--------------------------|
|-----------------------|--------------------------|
|-----------------------|---------------------5----|
|---------4---------8---|----------7--3-3-3-3------|
|-2-2-2-2---6-6-6-6-----|--0-0-0-0-----------------|


  PM------------------------------------------------------------------|
  E E E E E E E E   E E E E E E E E   E E E E E E E E   E E E E E E E E
|-----------------|-----------------|-----------------|-----------------|
|-----------------|-----------------|-----------------|-----------------|
|-----------------|-----------------|-----------------|-----------------|
|-----------------|-----------------|-----------------|-----------------|
|-8-8-8-8-8-8-8-8-|-9-9-9-9-9-9-9-9-|-7-7-7-7-7-7-7-7-|-5-5-5-5-5-5-5-5-|
|-6-6-6-6-6-6-6-6-|-7-7-7-7-7-7-7-7-|-5-5-5-5-5-5-5-5-|-3-3-3-3-3-3-3-3-|


   E  E  E  E  E  E  E  E    E  E  E  E  E  E  E  E
|-------------------------|-------------------------|
|-------------------------|-------------------------|
|-------------------------|-------------------------|
|-15-15-15-15-15-15-15-15-|-16-16-16-16-16-16-16-16-|
|-13-13-13-13-13-13-13-13-|-14-14-14-14-14-14-14-14-|
|-------------------------|-------------------------|


  E E E E E E E E    E  E  E  E  E  E  E  E
|-----------------|-------------------------|
|-----------------|-------------------------|
|-----------------|-------------------------|
|-8-8-8-8-8-8-8-8-|-12-12-12-12-12-12-12-12-|
|-6-6-6-6-6-6-6-6-|-10-10-10-10-10-10-10-10-|
|-----------------|-------------------------|


  PM------------------------------------------------------------------|
  E E E E E E E E   E E E E E E E E   E E E E E E E E   E E E E E E E E
|-----------------|-----------------|-----------------|-----------------|
|-----------------|-----------------|-----------------|-----------------|
|-----------------|-----------------|-----------------|-----------------|
|-----------------|-----------------|-----------------|-----------------|
|-8-8-8-8-8-8-8-8-|-9-9-9-9-9-9-9-9-|-8-8-8-8-8-8-8-8-|-5-5-5-5-5-5-5-5-|
|-6-6-6-6-6-6-6-6-|-7-7-7-7-7-7-7-7-|-6-6-6-6-6-6-6-6-|-3-3-3-3-3-3-3-3-|


   E  E  E  E  E  E  E  E    E  E  E  E  E  E  E  E
|-------------------------|-------------------------|
|-------------------------|-------------------------|
|-------------------------|-------------------------|
|-------------------------|-------------------------|
|--8--8--8--8--8--8--8--8-|--9--9--9--9-13-13-13-13-|
|--6--6--6--6--6--6--6--6-|--7--7--7--7-------------|

                    PM|     PM|
  E E E E E E E E   E E E E E E E E
|-----------------|-----------------|
|-----------------|-----------------|
|-----------------|-----------------|
|-----------------|-------------9---|
|-6-6-6-6-6-6-6-6-|-----6-9-------9-|
|-----------------|-6-6-----6-6-----|


   Q  Q  Q   Q     Q  Q  Q   Q     Q  Q  Q   Q     Q  Q  Q   Q
|---------------|---------------|---------------|---------------|
|---------------|---------------|---------------|---------------|
|---------------|---------------|---------------|---------------|
|-11-----9------|-11-----9------|-11-----9------|-11-----9------|
|--9--8--7--10--|--9--8--7--10--|--9--8--7--10--|--9--8--7--10--|
|-----6------8--|-----6------8--|-----6------8--|-----6------8--|


  S S S S S S S S S S S S S S S S   S S S S S S S S S S S S S S S S
|---------------------------------|-----------------------------------|
|---------------------------------|-----------------------------------|
|---------------------------------|-----------------------------------|
|---------------------------------|-----------------------------------|
|-9-9-9-9---------7-7-7-7---------|-9-9-9-9---------7-7-7-7-----------|
|---------6-6-6-6---------8-8-8-8-|---------6-6-6-6---------8-8-8-8---|


                                    PM----------------------------|
  S S S S S S S S S S S S S S S S   S S S S S S S S S S S S S S S S
|---------------------------------|-----------------------------------|
|---------------------------------|-----------------------------------|
|---------------------------------|-----------------------------------|
|---------------------------------|-----------------------------------|
|-9-9-9-9---------7-7-7-7---------|-----------------------------------|
|---------6-6-6-6---------8-8-8-8-|-2-2-2-2-6-6-6-6-0-0-0-0-3-3-3-3---|


  S S S S S S S S S S S S S S S S   S S S S S S S S S S S S S S S S
|---------------------------------|-----------------------------------|
|---------------------------------|-----------------------------------|
|---------------------------------|-----------------------------------|
|---------------------------------|-----------------------------------|
|-9-9-9-9---------7-7-7-7---------|-9-9-9-9---------7-7-7-7-----------|
|---------6-6-6-6---------8-8-8-8-|---------6-6-6-6---------8-8-8-8---|


                                    PM----------------------------|
  S S S S S S S S S S S S S S S S   S S S S S S S S S S S S S S S S
|---------------------------------|-----------------------------------|
|---------------------------------|-----------------------------------|
|---------------------------------|-----------------------------------|
|---------------------------------|-----------------------------------|
|-9-9-9-9---------7-7-7-7---------|-----------------------------------|
|---------6-6-6-6---------8-8-8-8-|-2-2-2-2-6-6-6-6-0-0-0-0-3-3-3-3---|


  S S S S S S S S S S S S S S S S   S S S S S S S S S S S S S S S S
|---------------------------------|-----------------------------------|
|---------------------------------|-----------------------------------|
|---------------------------------|-----------------------------------|
|---------------------------------|-----------------------------------|
|-9-9-9-9---------7-7-7-7---------|-9-9-9-9---------7-7-7-7-----------|
|---------6-6-6-6---------8-8-8-8-|---------6-6-6-6---------8-8-8-8---|


                                    PM----------------------------|
  S S S S S S S S S S S S S S S S   S S S S S S S S S S S S S S S S
|---------------------------------|-----------------------------------|
|---------------------------------|-----------------------------------|
|---------------------------------|-----------------------------------|
|---------------------------------|-----------------------------------|
|-9-9-9-9---------7-7-7-7---------|-----------------------------------|
|---------6-6-6-6---------8-8-8-8-|-2-2-2-2-6-6-6-6-0-0-0-0-3-3-3-3---|


  S S S S S S S S S S S S S S S S   S S S S S S S S S S S S S S S S
|---------------------------------|-----------------------------------|
|---------------------------------|-----------------------------------|
|---------------------------------|-----------------------------------|
|---------------------------------|-----------------------------------|
|-9-9-9-9---------7-7-7-7---------|-9-9-9-9---------7-7-7-7-----------|
|---------6-6-6-6---------8-8-8-8-|---------6-6-6-6---------8-8-8-8---|


                                    PM--------------------|
  S S S S S S S S S S S S S S S S   S S S S S S S S S S S S E E
|---------------------------------|--------------------------------*|
|---------------------------------|--------------------------------*|
|---------------------------------|--------------------------------*|
|---------------------------------|-------------------------5-5----*|
|-9-9-9-9---------7-7-7-7---------|-------------------------3-3----*|
|---------6-6-6-6---------8-8-8-8-|-2-2-2-2-6-6-6-6-0-0-0-0--------*|




--------------------------------------------------------------------------------
--------------------------------------------------------------------------------
--------------------------------------------------------------------------------


Band : The Berzerker
Song : Forever
Album : The Berzerker
Website : www.TheBerzerker.com

Gtr I (A D G C E A) - 'Rhythm'



 

   4/4
    Gtrs I, II
    W          W          W          H.    E +E
||-----------|----------|----------|--------------|
||o----------|----------|----------|--------------|
||-----------|-7--------|----------|-6------------|
||--4--------|-7--------|-7--------|-6-----5-(5)s=|
||o-4--------|-5--------|-7--------|-4-----5-(5)s=|
||--2--------|----------|-5--------|-------3-(3)s=|


     PM----|
  Q  Q  Q  Q    H.     Q      H.     Q    H.      Q
|-------------|------------|------------|-------------||
|-------------|------------|------------|------------o||
|-------------|-7------7---|------------|-6-----------||
|-4-----------|-7------7---|--7------7--|-6-------5---||
|-4--4--4--4--|-5------5---|--7------7--|-4-------5--o||
|-2--2--2--2--|------------|--5------5--|---------3---||


    Q  S S S S S S S S S S S S   S S S S S S S S S S S S S S S S
||-----------------------------|------------------------------------|
||o----------------------------|------------------------------------|
||-------------6-6-6-6---------|---------4-4-4-4--------------------|
||--4--4-4-4-4---------7-7-7-7-|-2-2-2-2---------5-5-5-5-0-0-0-0----|
||o-4--------------------------|------------------------------------|
||--2--------------------------|------------------------------------|


                                                             PM
  Q  S S S S S S S S S S S S   S S S S S S S S S S S S   E   E
|----------------------------|-----------------------------------|
|----------------------------|-----------------------------------|
|------------6-6-6-6-9-9-9-9-|-7-7-7-7---------------------------|
|-4--4-4-4-4-----------------|---------5-5-5-5-9-9-9-9---5-------|
|-4--------------------------|---------------------------5-------|
|-2--------------------------|---------------------------3---0---|


  Q  S S S S S S S S S S S S   S S S S S S S S S S S S S S S S
|----------------------------|------------------------------------|
|----------------------------|------------------------------------|
|------------6-6-6-6---------|---------4-4-4-4--------------------|
|-4--4-4-4-4---------7-7-7-7-|-2-2-2-2---------5-5-5-5-0-0-0-0----|
|-4--------------------------|------------------------------------|
|-2--------------------------|------------------------------------|


                1.,2.                  3.
  H    +Q   Q    H    +Q   E   +E      W
|--------------|--------------------||------|
|--------------|-------------------o||------|
|-2----(2)--2--|-6----(6)-----------||-6----|
|-2----(2)--2--|-6----(6)--8b9r(8)--||-6----|
|-0----(0)--0--|-4----(4)--8b9r(8)-o||-4----|
|--------------|-----------6b7r(6)--||------|


    T   T   T   T   T   T   T   T     T   T   T   T   T   T   T   T
    S S S S S S S S S S S S S S S S   S S S S S S S S S S S S S S S S
||----------------------------------|----------------------------------|
||o---------------------------------|----------------------------------|
||----------------------------------|----------------------------------|
||----------------------------------|----------------------------------|
||o-9p6-9p6-9p6-9p6-9p6-9p6-9p6-9p6-|-9p6-9p6-9p6-9p6-9p6-9p6-9p6-9p6--|
||----------------------------------|----------------------------------|


  T   T   T   T   T   T   T   T     T   T   T   T   T   T   T   T
  S S S S S S S S S S S S S S S S   S S S S S S S S S S S S S S S S
|---------------------------------|---------------------------------|
|---------------------------------|---------------------------------|
|---------------------------------|---------------------------------|
|-8p5-8p5-8p5-8p5-8p5-8p5-8p5-8p5-|-7p4-7p4-7p4-7p4-7p4-7p4-7p4-7p4-|
|---------------------------------|---------------------------------|
|---------------------------------|---------------------------------|


  T   T   T   T   T   T   T   T     T   T   T   T   T   T   T   T
  S S S S S S S S S S S S S S S S   S S S S S S S S S S S S S S S S
|---------------------------------|---------------------------------|
|---------------------------------|---------------------------------|
|---------------------------------|---------------------------------|
|---------------------------------|---------------------------------|
|-9p6-9p6-9p6-9p6-9p6-9p6-9p6-9p6-|-9p6-9p6-9p6-9p6-9p6-9p6-9p6-9p6-|
|---------------------------------|---------------------------------|


   T    T    T    T    T    T    T    T
   S S  S S  S S  S S  S S  S S  S S  S S
|-----------------------------------------|
|-----------------------------------------|
|-----------------------------------------|
|-10p6-10p6-10p6-10p6-10p6-10p6-10p6-10p6-|
|-----------------------------------------|
|-----------------------------------------|


  1.
  T   T   T   T   T   T   T   T
  S S S S S S S S S S S S S S S S
|------------------------------------||
|-----------------------------------o||
|------------------------------------||
|------------------------------------||
|-7p4-7p4-7p4-7p4-7p4-7p4-7p4-7p4---o||
|------------------------------------||


  2.
  T   T   T   T
  S S S S S S S S E E Q      Q  S S S S S S S S S S S S
|------------------------||-----------------------------|
|------------------------||o----------------------------|
|------------------------||-------------6-6-6-6---------|
|------------------------||--4--4-4-4-4---------7-7-7-7-|
|-7p4-7p4-7p4-7p4-7------||o-4--------------------------|
|------------------------||--2--------------------------|


  S S S S S S S S S S S S S S S S
|---------------------------------|
|---------------------------------|
|---------4-4-4-4-----------------|
|-2-2-2-2---------5-5-5-5-0-0-0-0-|
|---------------------------------|
|---------------------------------|


                                                         PM
  Q  S S S S S S S S S S S S   S S S S S S S S S S S S E E
|----------------------------|--------------------------------|
|----------------------------|--------------------------------|
|------------6-6-6-6-9-9-9-9-|-7-7-7-7------------------------|
|-4--4-4-4-4-----------------|---------5-5-5-5-9-9-9-9-5------|
|-4--------------------------|-------------------------5------|
|-2--------------------------|-------------------------3-0----|


  Q  S S S S S S S S S S S S   S S S S S S S S S S S S S S S S
|----------------------------|------------------------------------|
|----------------------------|------------------------------------|
|------------6-6-6-6---------|---------4-4-4-4--------------------|
|-4--4-4-4-4---------7-7-7-7-|-2-2-2-2---------5-5-5-5-0-0-0-0----|
|-4--------------------------|------------------------------------|
|-2--------------------------|------------------------------------|


                 1.                    2.
  H    +Q   Q    H    +Q   E   +E      W          +W
|--------------|--------------------||----------|--------|
|--------------|-------------------o||----------|--------|
|-2----(2)--2--|-6----(6)-----------||-6--------|-(6)----|
|-2----(2)--2--|-6----(6)--8b9r(8)--||-6--------|-(6)----|
|-0----(0)--0--|-4----(4)--8b9r(8)-o||-4--------|-(4)----|
|--------------|-----------6b7r(6)--||----------|--------|


                       PM--|                         PM------|
    H    Q.   E   +Q.  E E E Q    H    Q.   E   +E   E E E E E Q
||--------------|---------------|-------------|---------------------||
||o-------------|---------------|-------------|--------------------o||
||-------6------|---------------|------7------|---------------------||
||--4----6----5-|-(5)-----------|-4----7----7-|-(7)-----------------||
||o-4----4----5-|-(5)--5-5-5-5--|-4----5----7-|-(7)--7-7-7-7-7-7---o||
||--2---------3-|-(3)--3-3-3-3--|-2---------5-|-(5)--5-5-5-5-5-5----||


    H    Q.   E   +W       H    Q.   E     +W      3x
||--------------|--------|--------------|----------||
||o-------------|--------|--------------|---------o||
||-------6------|--------|------7-------|----------||
||--4----6----5-|-(5)----|-4----7----7--|--(7)-----||
||o-4----4----5-|-(5)----|-4----5----7--|--(7)----o||
||--2---------3-|-(3)----|-2---------5--|--(5)-----||


           PM|         PM  PM       PM-----|     PM----|
  H.       E E   Q.    q E q    H.  E E    q  E  E E E E  E
|--------------|--------------|----------|------------------|
|--------------|--------------|----------|------------------|
|-7------------|--------------|-5--------|------------------|
|-7------------|-4\-----------|-5--------|------------------|
|-5--------7-5-|-4\----2---5--|-3---5-3--|-2-----5-3-5-2----|
|----------5-3-|-2\----0---3--|-----3-1--|-0-----3-1-3-0----|


    T   T   T   T   T   T   T   T     T   T   T   T   T   T   T   T
    S S S S S S S S S S S S S S S S   S S S S S S S S S S S S S S S S
||----------------------------------|----------------------------------|
||o---------------------------------|----------------------------------|
||----------------------------------|----------------------------------|
||----------------------------------|----------------------------------|
||o-9p6-9p6-9p6-9p6-9p6-9p6-9p6-9p6-|-9p6-9p6-9p6-9p6-9p6-9p6-9p6-9p6--|
||----------------------------------|----------------------------------|


  T   T   T   T   T   T   T   T     T   T   T   T   T   T   T   T
  S S S S S S S S S S S S S S S S   S S S S S S S S S S S S S S S S
|---------------------------------|-----------------------------------|
|---------------------------------|-----------------------------------|
|---------------------------------|-----------------------------------|
|-8p5-8p5-8p5-8p5-8p5-8p5-8p5-8p5-|-7p4-7p4-7p4-7p4-7p4-7p4-7p4-7p4---|
|---------------------------------|-----------------------------------|
|---------------------------------|-----------------------------------|


  T   T   T   T   T   T   T   T     T   T   T   T   T   T   T   T
  S S S S S S S S S S S S S S S S   S S S S S S S S S S S S S S S S
|---------------------------------|-----------------------------------|
|---------------------------------|-----------------------------------|
|---------------------------------|-----------------------------------|

|---------------------------------|-----------------------------------|
|-9p6-9p6-9p6-9p6-9p6-9p6-9p6-9p6-|-9p6-9p6-9p6-9p6-9p6-9p6-9p6-9p6---|
|---------------------------------|-----------------------------------|


   T    T    T    T    T    T    T    T
   S S  S S  S S  S S  S S  S S  S S  S S
|-----------------------------------------|
|-----------------------------------------|
|-----------------------------------------|
|-10p6-10p6-10p6-10p6-10p6-10p6-10p6-10p6-|
|-----------------------------------------|
|-----------------------------------------|


  1.
  T   T   T   T   T   T   T   T
  S S S S S S S S S S S S S S S S
|------------------------------------||
|-----------------------------------o||
|------------------------------------||
|------------------------------------||
|-7p4-7p4-7p4-7p4-7p4-7p4-7p4-7p4---o||
|------------------------------------||


  2.
  T   T   T   T   T
  S S S S S S S S Q  Q                          W
|--------------------------------------|-------------|
|--------------------------------------|-------------|
|--------------------------------------|-------------|
|--------------------------------------|-------------|
|-7p4-7p4-7p4-7p4-7--------------------|-------------|
|--------------------------------------|-------------|


    Q  S S S S S S S S S S S S   S S S S S S S S S S S S S S S S
||-----------------------------|------------------------------------|
||o----------------------------|------------------------------------|
||-------------6-6-6-6---------|---------4-4-4-4--------------------|
||--4--4-4-4-4---------7-7-7-7-|-2-2-2-2---------5-5-5-5-0-0-0-0----|
||o-4--------------------------|------------------------------------|
||--2--------------------------|------------------------------------|


  Q  S S S S S S S S S S S S   S S S S S S S S S S S S E E
|----------------------------|--------------------------------|
|----------------------------|--------------------------------|
|------------6-6-6-6-9-9-9-9-|-7-7-7-7------------------------|
|-4--4-4-4-4-----------------|---------5-5-5-5-9-9-9-9-5------|
|-4--------------------------|-------------------------5------|
|-2--------------------------|-------------------------3-0----|


  Q  S S S S S S S S S S S S   S S S S S S S S S S S S S S S S
|----------------------------|------------------------------------|
|----------------------------|------------------------------------|
|------------6-6-6-6---------|---------4-4-4-4--------------------|
|-4--4-4-4-4---------7-7-7-7-|-2-2-2-2---------5-5-5-5-0-0-0-0----|
|-4--------------------------|------------------------------------|
|-2--------------------------|------------------------------------|


                 1.                    2.
  H    +Q   Q    H    +Q   E   +E      W          +W
|--------------|--------------------||----------|--------*|
|--------------|-------------------o||----------|--------*|
|-2----(2)--2--|-6----(6)-----------||-6--------|-(6)----*|
|-2----(2)--2--|-6----(6)--8b9r(8)--||-6--------|-(6)----*|
|-0----(0)--0--|-4----(4)--8b9r(8)-o||-4--------|-(4)----*|
|--------------|-----------6b7r(6)--||----------|--------*|





--------------------------------------------------------------------------------
--------------------------------------------------------------------------------
--------------------------------------------------------------------------------

Band : The Berzerker
Song : Burnt
Album : The Berzerker
Website : www.TheBerzerker.com

Gtr I (A D G C E A) - 'Rhythm'



   
   4/4
    Gtrs I, II
            PM|             PM----|           PM|             PM----|
    S S S S S S S S S S S S S S S S   S S S S S S S S S S S S S S S S
||----------------------------------|---------------------------------|
||o---------------------------------|---------------------------------|
||----------------------------------|---------------------------------|
||----------------------5-4---------|---------------------5-4---------|
||o-3-3-3-3-6-6-3-3-3-3-----6-6-6-6-|-2-2-2-2-6-6-3-3-3-3-----6-6-6-6-|
||----------------------------------|---------------------------------|


          PM|
  S S S S S S S S S S S S S S S S
|---------------------------------|
|---------------------------------|
|---------------------------------|
|---------------------5-4---------|
|-2-2-2-2-6-6-3-3-3-3-----6-6-6-6-|
|---------------------------------|


  S S S S S S S S S S S S S S S S          W
|----------------------------------||-----------|
|---------------------------------o||-----------|
|----------------------------------||-----------|
|-----------------4-4-4------------||-----------|
|-0-0-0-2-2-2-3-3-------3-3-3-2-2-o||-----------|
|----------------------------------||-----------|


  W         S S S S S S S S S S S S S S S S
|-------||----------------------------------|
|-------||o---------------------------------|
|-------||----------------------------------|
|-------||----------------------5-4---------|
|-------||o-3-3-3-3-6-6-3-3-3-3-----6-6-6-6-|
|-------||----------------------------------|


  S S S S S S S S S S S S S S S S
|-----------------------------------|
|-----------------------------------|
|-----------------------------------|
|---------------------5-4-----------|
|-2-2-2-2-6-6-3-3-3-3-----6-6-6-6---|
|-----------------------------------|


  S S S S S S S S S S S S S S S S   S S S S S S S S S S S S S S S S
|---------------------------------|------------------------------------||
|---------------------------------|-----------------------------------o||
|---------------------------------|------------------------------------||
|---------------------5-4---------|-----------------4-4-4--------------||
|-2-2-2-2-6-6-3-3-3-3-----6-6-6-6-|-0-0-0-2-2-2-3-3-------3-3-3-2-2---o||
|---------------------------------|------------------------------------||


   4/4
    |-3-| |-3-| |-3-| |-3-|   |-3-| |-3-| |-3-| |-3-|
    E E E E E E E E E E E E   E E E E E E E E E E E E
||--------------------------|-------------------------|
||o-------------------------|-------------------------|
||--------------------------|-------------------------|
||--------------------------|-------------------------|
||o-------------------------|-------------------------|
||--0-0-0-0-0-0-0-0-0-0-0-0-|-0-0-0-1-1-1-0-0-0-5-5-5-|


  |-3-|  |-3-|  |-3-|  |-3-|   |-3-|  |-3-|  |-3-|  |-3-|
  E E E  E E E  E E E  E E E   E E E  E E E  E E E  E E E
|----------------------------|-------------------------------|
|----------------------------|-------------------------------|
|----------------------------|-------------------------------|
|----------------------------|-------------------------------|
|----------------------------|-------------------------------|
|-4-4-4--4-4-4--4-4-4--4-4-4-|-4-4-4--7-7-7--0-0-0--4-4-4----|


  |-3-|  |-3-|  |-3-|  |-3-|   |-3-|  |-3-|  |-3-|  |-3-|
  E E E  E E E  E E E  E E E   E E E  E E E  E E E  E E E
|----------------------------|-------------------------------|
|----------------------------|-------------------------------|
|----------------------------|-------------------------------|
|----------------------------|-------------------------------|
|----------------------5-----|-4--------------------5--------|
|-3-3-3--3-3-3--3-3-3----3-3-|---3-3--3-3-3--3-3-3----3-3----|


  |-3-| |-3-| |-3-| |-3-|   |-3-|  |-3-|  |-3-|  |-3-|
  E E E E E E E E E E E E   E E E  E E E  E E E  E E E
|-------------------------|--------------------------------||
|-------------------------|-------------------------------o||
|-------------------------|--------------------------------||
|-------------------------|--------------------------------||
|-4-----------------5-5-5-|-4-4-4--1-1-1--4-4-4--5-5-5----o||
|---3-3-3-3-3-3-3-3-------|--------------------------------||


  |-3-| |-3-| |-3-| |-3-|   |-3-| |-3-| |-3-| |-3-|
  E E E E E E E E E E E E   E E E E E E E E E E E E
|-------------------------|----------------------------|
|-------------------------|----------------------------|
|-------------------------|----------------------------|
|-2-2-2-2-2-2-2-2-2-2-2-2-|-2-2-2-3-3-3-2-2-2----------|
|-------------------------|----------------------------|
|-------------------------|-------------------5-5-5----|


  |-3-| |-3-| |-3-| |-3-|   |-3-| |-3-| |-3-| |-3-|
  E E E E E E E E E E E E   E E E E E E E E E E E E
|-------------------------|----------------------------|
|-------------------------|----------------------------|
|-------------------------|----------------------------|
|-------------------6-6-6-|-------6-6-6-------6-6-6----|
|-------------------------|-------------7-7-7----------|
|-4-4-4-4-4-4-4-4-4-------|-4-4-4----------------------|


  |-3-| |-3-| |-3-| |-3-|   |-3-| |-3-| |-3-| |-3-|
  E E E E E E E E E E E E   E E E E E E E E E E E E
|-------------------------|----------------------------|
|-------------------------|----------------------------|
|-------------------7-----|-6-----------------7--------|
|-5-5-5-5-5-5-5-5-5---5-5-|---5-5-5-5-5-5-5-5---5-5----|
|-------------------------|----------------------------|
|-------------------------|----------------------------|


  |-3-| |-3-| |-3-| |-3-|   |-3-| |-3-| |-3-| |-3-|
  E E E E E E E E E E E E   E E E E E E E E E E E E
|-------------------------|----------------------------|
|-------------------------|----------------------------|
|-6-----------------7-7-7-|-6-6-6-------6-6-6-7-7-7----|
|---5-5-5-5-5-5-5-5-------|-------8-8-8----------------|
|-------------------------|----------------------------|
|-------------------------|----------------------------|


  |-3-| |-3-| |-3-| |-3-|   |-3-| |-3-| |-3-| |-3-|
  E E E E E E E E E E E E   E E E E E E E E E E E E
|-------------------------|----------------------------|
|-------------------------|----------------------------|
|-------------------------|----------------------------|
|-------------------------|----------------------------|
|-------------------------|----------------------------|
|-0-0-0-0-0-0-0-0-0-0-0-0-|-0-0-0-1-1-1-0-0-0-5-5-5----|


  |-3-| |-3-| |-3-| |-3-|   |-3-| |-3-| |-3-| |-3-|
  E E E E E E E E E E E E   E E E E E E E E E E E E
|-------------------------|----------------------------|
|-------------------------|----------------------------|
|-------------------------|----------------------------|
|-------------------------|----------------------------|
|-------------------------|----------------------------|
|-4-4-4-4-4-4-4-4-4-4-4-4-|-4-4-4-7-7-7-0-0-0-4-4-4----|


  |-3-| |-3-| |-3-| |-3-|   |-3-| |-3-| |-3-| |-3-|
  E E E E E E E E E E E E   E E E E E E E E E E E E
|-------------------------|----------------------------|
|-------------------------|----------------------------|
|-------------------------|----------------------------|
|-------------------------|----------------------------|
|-------------------5-----|-4-----------------5--------|
|-3-3-3-3-3-3-3-3-3---3-3-|---3-3-3-3-3-3-3-3---3-3----|


  |-3-| |-3-| |-3-| |-3-|   |-3-| |-3-| |-3-| |-3-|
  E E E E E E E E E E E E   E E E E E E E E E E E E
|-------------------------|----------------------------|
|-------------------------|----------------------------|
|-------------------------|----------------------------|
|-------------------------|----------------------------|
|-4-----------------5-5-5-|-4-4-4-1-1-1-4-4-4-5-5-5----|
|---3-3-3-3-3-3-3-3-------|----------------------------|


  Wx32
|---------|
|---------|
|---------|
|---------|
|---------|
|---------|


     PM---------------------|
     |-3-| |-3-|  |-3-| |-3-|
     E E E E E E  E E E E E E          S S S S S S S S S S S S  E E
||------------------------------||-||----------------------------------|
||o----------------------------o||-||o---------------------------------|
||------------------------------||-||----------------------------------|
||--10-8-7-9-8-7-10-8-7-9-8-7---||-||----------------------------------|
||o-10-8-7-9-8-7-10-8-7-9-8-7--o||-||o--------------------------8p6----|
||---8-6-5-7-6-5--8-6-5-7-6-5---||-||--5-5-5-5-5-5-5-5-5-5-5-5---------|


                                           PM---------------------|
                                           |-3-| |-3-|  |-3-| |-3-|
  S S S S S S S S S S S S S S S S          E E E E E E  E E E E E E     8x
|----------------------------------||-||--------------------------------||
|---------------------------------o||-||o------------------------------o||
|----------------------------------||-||--------------------------------||
|----------------------------------||-||--10-8-7-9-8-7-10-8-7-9-8-7-----||
|---------------------------------o||-||o-10-8-7-9-8-7-10-8-7-9-8-7----o||
|-6-6-6-6-6-6-6-6-4-4-4-4-4-4-4-4--||-||---8-6-5-7-6-5--8-6-5-7-6-5-----||



  S S S S S S S S S S S S E E   S S S S S S S S S S S S S S S S
|-----------------------------|------------------------------------|
|-----------------------------|------------------------------------|
|-----------------------------|------------------------------------|
|-----------------------------|------------------------------------|
|-------------------------8p6-|------------------------------------|
|-5-5-5-5-5-5-5-5-5-5-5-5-----|-6-6-6-6-6-6-6-6-4-4-4-4-4-4-4-4----|


    |-3-| |-3-| |-3-| |-3-|   |-3-| |-3-| |-3-| |-3-|
    E E E E E E E E E E E E   E E E E E E E E E E E E
||--------------------------|----------------------------|
||o-------------------------|----------------------------|
||--------------------------|----------------------------|
||--------------------------|----------------------------|
||o-------------------------|----------------------------|
||--0-0-0-0-0-0-0-0-0-0-0-0-|-0-0-0-1-1-1-0-0-0-5-5-5----|


  |-3-| |-3-| |-3-| |-3-|   |-3-| |-3-| |-3-| |-3-|
  E E E E E E E E E E E E   E E E E E E E E E E E E
|-------------------------|----------------------------|
|-------------------------|----------------------------|
|-------------------------|----------------------------|
|-------------------------|----------------------------|
|-------------------------|----------------------------|
|-4-4-4-4-4-4-4-4-4-4-4-4-|-4-4-4-7-7-7-0-0-0-4-4-4----|


  |-3-| |-3-| |-3-| |-3-|   |-3-| |-3-| |-3-| |-3-|
  E E E E E E E E E E E E   E E E E E E E E E E E E
|-------------------------|----------------------------|
|-------------------------|----------------------------|
|-------------------------|----------------------------|
|-------------------------|----------------------------|
|-------------------5-----|-4-----------------5--------|
|-3-3-3-3-3-3-3-3-3---3-3-|---3-3-3-3-3-3-3-3---3-3----|


  |-3-| |-3-| |-3-| |-3-|   |-3-| |-3-| |-3-| |-3-|
  E E E E E E E E E E E E   E E E E E E E E E E E E
|-------------------------|-----------------------------||
|-------------------------|----------------------------o||
|-------------------------|-----------------------------||
|-------------------------|-----------------------------||
|-4-----------------5-5-5-|-4-4-4-1-1-1-4-4-4-5-5-5----o||
|---3-3-3-3-3-3-3-3-------|-----------------------------||


  |-3-| |-3-| |-3-| |-3-|   |-3-| |-3-| |-3-| |-3-|
  E E E E E E E E E E E E   E E E E E E E E E E E E
|-------------------------|----------------------------|
|-------------------------|----------------------------|
|-------------------------|----------------------------|
|-2-2-2-2-2-2-2-2-2-2-2-2-|-2-2-2-3-3-3-2-2-2----------|
|-------------------------|----------------------------|
|-------------------------|-------------------5-5-5----|


  |-3-| |-3-| |-3-| |-3-|   |-3-| |-3-| |-3-| |-3-|
  E E E E E E E E E E E E   E E E E E E E E E E E E
|-------------------------|----------------------------|
|-------------------------|----------------------------|
|-------------------------|----------------------------|
|-------------------6-6-6-|-------6-6-6-------6-6-6----|
|-------------------------|-------------7-7-7----------|
|-4-4-4-4-4-4-4-4-4-------|-4-4-4----------------------|


  |-3-| |-3-| |-3-| |-3-|   |-3-| |-3-| |-3-| |-3-|
  E E E E E E E E E E E E   E E E E E E E E E E E E
|-------------------------|----------------------------|
|-------------------------|----------------------------|
|-------------------7-----|-6-----------------7--------|
|-5-5-5-5-5-5-5-5-5---5-5-|---5-5-5-5-5-5-5-5---5-5----|
|-------------------------|----------------------------|
|-------------------------|----------------------------|


  |-3-| |-3-| |-3-| |-3-|   |-3-| |-3-| |-3-| |-3-|
  E E E E E E E E E E E E   E E E E E E E E E E E E
|-------------------------|----------------------------|
|-------------------------|----------------------------|
|-6-----------------7-7-7-|-6-6-6-------6-6-6-7-7-7----|
|---5-5-5-5-5-5-5-5-------|-------8-8-8----------------|
|-------------------------|----------------------------|
|-------------------------|----------------------------|


  |-3-| |-3-| |-3-| |-3-|   |-3-| |-3-| |-3-| |-3-|
  E E E E E E E E E E E E   E E E E E E E E E E E E
|-------------------------|----------------------------|
|-------------------------|----------------------------|
|-------------------------|----------------------------|
|-------------------------|----------------------------|
|-------------------------|----------------------------|
|-0-0-0-0-0-0-0-0-0-0-0-0-|-0-0-0-1-1-1-0-0-0-5-5-5----|


  |-3-| |-3-| |-3-| |-3-|   |-3-| |-3-| |-3-| |-3-|
  E E E E E E E E E E E E   E E E E E E E E E E E E
|-------------------------|----------------------------|
|-------------------------|----------------------------|
|-------------------------|----------------------------|
|-------------------------|----------------------------|
|-------------------------|----------------------------|
|-4-4-4-4-4-4-4-4-4-4-4-4-|-4-4-4-7-7-7-0-0-0-4-4-4----|


  |-3-| |-3-| |-3-| |-3-|   |-3-| |-3-| |-3-| |-3-|
  E E E E E E E E E E E E   E E E E E E E E E E E E
|-------------------------|----------------------------|
|-------------------------|----------------------------|
|-------------------------|----------------------------|
|-------------------------|----------------------------|
|-------------------5-----|-4-----------------5--------|
|-3-3-3-3-3-3-3-3-3---3-3-|---3-3-3-3-3-3-3-3---3-3----|


  |-3-| |-3-| |-3-| |-3-|   |-3-| |-3-| |-3-| |-3-|
  E E E E E E E E E E E E   E E E E E E E E E E E E
|-------------------------|----------------------------|
|-------------------------|----------------------------|
|-------------------------|----------------------------|
|-------------------------|----------------------------|
|-4-----------------5-5-5-|-4-4-4-1-1-1-4-4-4-5-5-5----|
|---3-3-3-3-3-3-3-3-------|----------------------------|


  W                 +W
|----------------|---------*|
|----------------|---------*|
|----------------|---------*|
|-2--------------|--(2)----*|
|-2--------------|--(2)----*|
|-0--------------|--(0)----*|




--------------------------------------------------------------------------------
--------------------------------------------------------------------------------
--------------------------------------------------------------------------------

Band : The Berzerker
Song : Pain
Album : The Berzerker
Website : www.TheBerzerker.com



Gtr I (A D G C E A) - 'Rhythm Guitar'




 4/4
  Gtrs I, II
  E Q  E E Q  E   E Q  E E Q  E   E Q  E E Q  E   E E E E E E E E
|---------------|---------------|---------------|------------------|
|---------------|---------------|---------------|------------------|
|-2----2-2----2-|-2----2-2----2-|-2----2-2----2-|------------------|
|-2----2-2----2-|-2----2-2----2-|-2----2-2----2-|-2-2-2-2-2-2-2-2--|
|-0----0-0----0-|-0----0-0----0-|-0----0-0----0-|-0-0-0-0-0-0-0-0--|
|---------------|---------------|---------------|------------------|


  E Q  E E Q  E   E Q  E E Q  E   E Q  E E Q  E   E E E E E E E E
|---------------|---------------|---------------|-----------------|
|---------------|---------------|---------------|-----------------|
|---------------|---------------|---------------|-----------------|
|-2----2-2----2-|-2----2-2----2-|-2----2-2----2-|-2-2-2-2-2-2-2-2-|
|-0----0-0----0-|-0----0-0----0-|-0----0-0----0-|-0-0-0-0-0-0-0-0-|
|---------------|---------------|---------------|-----------------|


  E    H..         W          W           W
|-------------|----------|----------|----------|
|-------------|----------|----------|----------|
|-------------|----------|----------|----------|
|-2-----------|----------|----------|----------|
|-0-----------|----------|----------|----------|
|-------------|----------|----------|----------|


                    3/4             4/4               5/4
  E E E E E E E E    E E E E E E     E E E E E E E E   E E E E E E E E E E
|------------------|---------------|-----------------|---------------------|
|------------------|---------------|-----------------|---------------------|
|------------------|---------------|-----------------|---------------------|
|-2-2-2-2-2-2-2-2--|-2-2-2-2-2-2---|-2-2-2-2-2-2-2-2-|-2-2-2-2-2-2-2-2-2---|
|-0-0-0-0-0-0-0-0--|-0-0-0-0-0-0---|-0-0-0-0-0-0-0-0-|-0-0-0-0-0-0-0-0-0---|
|------------------|---------------|-----------------|---------------------|


 4/4
  E Q  E E Q  E   E Q   E E Q  E   E Q  E E  Q  E   E E E E E E E  E
|---------------|----------------|----------------|------------------|
|---------------|----------------|----------------|------------------|
|---------------|----------------|----------------|------------------|
|-2----2-2----2-|-2-----2-2----2-|-2----2-2-----2-|-2-2-2-2-2-2-2----|
|-0----0-0----0-|-0-----0-0----0-|-0----0-0-----0-|-0-0-0-0-0-0-0----|
|---------------|----------------|----------------|------------------|


         3/4        4/4        5/4
  W         H.          W         Q W
|-------|----------|----------|---------|
|-------|----------|----------|---------|
|-------|----------|----------|---------|
|-------|----------|----------|---------|
|-------|----------|----------|---------|
|-------|----------|----------|---------|


 4/4
  E E E E E E E E   E E E E E E E E   E E E E E E E E   E E E E E E E E
|-----------------|-----------------|-----------------|------------------|
|-----------------|-----------------|-----------------|------------------|
|-----------------|-----------------|-----------------|------------------|
|-2-2-2-2-2-2-2-2-|-2-2-2-2-2-2-2-2-|-2-2-2-2-2-2-2-2-|-2-2-2-2-2-2-2-2--|
|-0-0-0-0-0-0-0-0-|-0-0-0-0-0-0-0-0-|-0-0-0-0-0-0-0-0-|-0-0-0-0-0-0-0-0--|
|-----------------|-----------------|-----------------|------------------|


                   3/4           4/4               5/4
  E E E E E E E E   E E E E E E   E E E E E E E E   E E E E E E E E E E
|-----------------|-------------|-----------------|---------------------|
|-----------------|-------------|-----------------|---------------------|
|-----------------|-------------|-----------------|---------------------|
|-2-2-2-2-2-2-2-2-|-2-2-2-2-2-2-|-2-2-2-2-2-2-2-2-|-2-2-2-2-2-2-2-2-2---|
|-0-0-0-0-0-0-0-0-|-0-0-0-0-0-0-|-0-0-0-0-0-0-0-0-|-0-0-0-0-0-0-0-0-0---|
|-----------------|-------------|-----------------|---------------------|


 4/4     3/4        4/4      5/4
  W         H.         W       Q  W
|-------|----------|--------|----------|
|-------|----------|--------|----------|
|-------|----------|--------|----------|
|-------|----------|--------|----------|
|-------|----------|--------|----------|
|-------|----------|--------|----------|


 4/4
  E E E E E E E E   E E  E E E E E E   E E E E  E E E E   E E E E E E E E
|-----------------|------------------|------------------|------------------|
|-----------------|------------------|------------------|------------------|
|-----------------|------------------|------------------|------------------|
|-2-2-2-2-2-2-2-2-|-2-2--2-2-2-2-2-2-|-2-2-2-2--2-2-2-2-|-2-2-2-2-2-2-2----|
|-0-0-0-0-0-0-0-0-|-0-0--0-0-0-0-0-0-|-0-0-0-0--0-0-0-0-|-0-0-0-0-0-0-0----|
|-----------------|------------------|------------------|------------------|


  Wx8
|--------|
|--------|
|--------|
|--------|
|--------|
|--------|


  E E E E E E E E   E E E E E E E E   E E E E E E E E   E E E E E E E E
|-----------------|-----------------|-----------------|-----------------|
|-----------------|-----------------|-----------------|-----------------|
|-----------------|-----------------|-----------------|-----------------|
|-2-2-2-2-2-2-2-2-|-2-2-2-2-2-2-2-2-|-2-2-2-2-2-2-2-2-|-2-2-2-2-2-2-2-2-|
|-0-0-0-0-0-0-0-0-|-0-0-0-0-0-0-0-0-|-0-0-0-0-0-0-0-0-|-0-0-0-0-0-0-0-0-|
|-----------------|-----------------|-----------------|-----------------|


  E E E E E E E E   E E E E E E E E   E E E E E E E E   E E E E E E E E
|-----------------|-----------------|-----------------|-----------------|
|-----------------|-----------------|-----------------|-----------------|
|-----------------|-----------------|-----------------|-----------------|
|-2-2-2-2-2-2-2-2-|-2-2-2-2-2-2-2-2-|-2-2-2-2-2-2-2-2-|-2-2-2-2-2-2-2---|
|-0-0-0-0-0-0-0-0-|-0-0-0-0-0-0-0-0-|-0-0-0-0-0-0-0-0-|-0-0-0-0-0-0-0---|
|-----------------|-----------------|-----------------|-----------------|


          3/4         4/4      5/4
  W           H.         W        Q  W
|--------|-----------|--------|----------|
|--------|-----------|--------|----------|
|--------|-----------|--------|----------|
|--------|-----------|--------|----------|
|--------|-----------|--------|----------|
|--------|-----------|--------|----------|


 4/4
  E E E E E E E E   E E E E E E E E   E E E E E E E E   E E E E E E E E
|-----------------|-----------------|-----------------|------------------|
|-----------------|-----------------|-----------------|------------------|
|-----------------|-----------------|-----------------|------------------|
|-2-2-2-2-2-2-2-2-|-2-2-2-2-2-2-2-2-|-2-2-2-2-2-2-2-2-|-2-2-2-2-2-2-2----|
|-0-0-0-0-0-0-0-0-|-0-0-0-0-0-0-0-0-|-0-0-0-0-0-0-0-0-|-0-0-0-0-0-0-0----|
|-----------------|-----------------|-----------------|------------------|


 2/4    4/4
  H      E Q  E E Q  E   E Q  E E Q  E   E Q  E E Q  E   E E E E E E E E
|------|---------------|---------------|---------------|-------------------|
|------|---------------|---------------|---------------|-------------------|
|------|---------------|---------------|---------------|-------------------|
|------|-2----2-2----2-|-2----2-2----2-|-2----2-2----2-|-2-2-2-2-2-2-2-2---|
|------|-0----0-0----0-|-0----0-0----0-|-0----0-0----0-|-0-0-0-0-0-0-0-0---|
|------|---------------|---------------|---------------|-------------------|


  E Q  E E Q  E   E Q  E E Q  E   E Q  E E Q  E   E E E E E E E E   E E H.
|---------------|---------------|---------------|-----------------|--------*|
|---------------|---------------|---------------|-----------------|--------*|
|---------------|---------------|---------------|-----------------|--------*|
|-2----2-2----2-|-2----2-2----2-|-2----2-2----2-|-2-2-2-2-2-2-2-2-|-2------*|
|-0----0-0----0-|-0----0-0----0-|-0----0-0----0-|-0-0-0-0-0-0-0-0-|-0------*|
|---------------|---------------|---------------|-----------------|--------*|




--------------------------------------------------------------------------------
--------------------------------------------------------------------------------
--------------------------------------------------------------------------------

Band : The Berzerker
Song : Cannibal Rights
Album : The Berzerker
Website : www.TheBerzerker.com



Gtr I (A D G C E A) 
Gtr II (A D G C E A) 


 
  Gtr I
  W          +W           H    +E  E E E   +E  E E Q  E E E
|----------|------------|----------------|------------------|
|-6--------|-(6)--------|----------------|------------------|
|-6--------|-(6)--------|-6----(6)-------|------------------|
|-6--------|-(6)--------|-7----(7)-------|------------------|
|-4--------|-(4)--------|-7----(7)-----4-|-(4)-----6----6---|
|----------|------------|-5----(5)-0-5---|-----0-5----5---5-|
|
| Gtr II
| W          +W           W                +W
|----------|------------|----------------|------------------|
|-6--------|-(6)--------|----------------|------------------|
|-6--------|-(6)--------|-6--------------|-(6)--------------|
|-6--------|-(6)--------|-7--------------|-(7)--------------|
|-4--------|-(4)--------|-7--------------|-(7)--------------|
|----------|------------|-5--------------|-(5)--------------|


 4/4
  Gtr I
  W          +H     H      H    +E  E E E   +E  E E Q  E E E
|----------|-------------|----------------|-------------------|
|-6--------|-(6)---------|----------------|-------------------|
|-6--------|-(6)----9----|-6----(6)-------|-------------------|
|-6--------|-(6)----9----|-7----(7)-------|-------------------|
|-4--------|-(4)----7----|-7----(7)-----4-|-(4)-----6----6----|
|----------|--------0----|-5----(5)-0-5---|-----0-5----5---5--|
|
| W          +H     H      W                +W
|----------|-------------|----------------|-------------------|
|-6--------|-(6)---------|----------------|-------------------|
|-6--------|-(6)----9----|-6--------------|-(6)---------------|
|-6--------|-(6)----9----|-7--------------|-(7)---------------|
|-4--------|-(4)----7----|-7--------------|-(7)---------------|
|----------|--------0----|-5--------------|-(5)---------------|


  H    +E  E E E   +E  E E Q  E E E   H    +E  E E E   +E  E E Q  E E E
|----------------|------------------|----------------|--------------------|
|----------------|------------------|----------------|--------------------|
|-9----(9)-------|------------------|-6----(6)-------|--------------------|
|----------------|------------------|-7----(7)-------|--------------------|
|-7----(7)-----6-|-(6)-----4----4---|-7----(7)-----4-|-(4)-----6----6-----|
|----------0-5---|-----0-5----5---5-|-5----(5)-0-5---|-----0-5----5---5---|
|
| W                +W                 W                +W
|----------------|------------------|----------------|--------------------|
|-6--------------|-(6)--------------|----------------|--------------------|
|-6--------------|-(6)--------------|-6--------------|-(6)----------------|
|-6--------------|-(6)--------------|-7--------------|-(7)----------------|
|-4--------------|-(4)--------------|-7--------------|-(7)----------------|
|----------------|------------------|-5--------------|-(5)----------------|


  Gtrs I, II
  W          +H     H      W              W
|----------|-------------|----------|----------|
|-6--------|-(6)---------|----------|----------|
|-6--------|-(6)----9----|-6--------|----------|
|-6--------|-(6)----9----|-7--------|----------|
|-4--------|-(4)----7----|-7--------|----------|
|----------|--------0----|-5--------|----------|


    S S S S S S S S S S S S S S S S   S S S S S S S S S S S S S S S S
||----------------------------------|----------------------------------|
||o---------------------------------|----------------------------------|
||--6-6-6-6-6-6-6-6-6-6-6-6-6-6-6-6-|-8-8-8-8-8-8-8-8-9-9-9-9-9-9-9-9--|
||----------------------------------|----------------------------------|
||o---------------------------------|----------------------------------|
||----------------------------------|----------------------------------|

[ Tab from: http://www.guitartabs.cc/tabs/b/berzerker/the_berzerker_tab.html ]
  S S S S S S S S S S S S S S S S   S S S S S S S S S S S S S S S S
|---------------------------------|------------------------------------||
|---------------------------------|-----------------------------------o||
|---------------------------------|------------------------------------||
|-7-7-7-7-7-7-7-7-7-7-7-7-7-7-7-7-|-7-7-7-7-7-7-7-7-7-7-7-7-7-7-7-7----||
|---------------------------------|-----------------------------------o||
|---------------------------------|------------------------------------||


    S S S S S S S S S S S S S S S S   S S S S S S S S S S S S S S S S
||----------------------------------|----------------------------------|
||o---------------------------------|----------------------------------|
||----------------------------------|----------------------------------|
||----------------------------------|----------------------------------|
||o-4-4-4-4-4-4-4-4-4-4-4-4-4-4-4-4-|-6-6-6-6-6-6-6-6-7-7-7-7-7-7-7-7--|
||----------------------------------|----------------------------------|


  S S S S S S S S S S S S S S S S   S S S S S S S S S S S S S S S S
|---------------------------------|------------------------------------||
|---------------------------------|-----------------------------------o||
|---------------------------------|------------------------------------||
|---------------------------------|------------------------------------||
|---------------------------------|-----------------------------------o||
|-5-5-5-5-5-5-5-5-5-5-5-5-5-5-5-5-|-5-5-5-5-5-5-5-5-5-5-5-5-5-5-5-5----||


  W          +W           W           +W
|----------|------------|-----------|--------|
|-6--------|-(6)--------|-----------|--------|
|-6--------|-(6)--------|-6---------|-(6)----|
|-6--------|-(6)--------|-7---------|-(7)----|
|-4--------|-(4)--------|-7---------|-(7)----|
|----------|------------|-5---------|-(5)----|


  W          +H     H      W          +W
|----------|-------------|----------|--------|
|-6--------|-(6)---------|----------|--------|
|-6--------|-(6)----9----|-6--------|-(6)----|
|-6--------|-(6)----9----|-7--------|-(7)----|
|-4--------|-(4)----7----|-7--------|-(7)----|
|----------|--------0----|-5--------|-(5)----|


 
  Gtr I
   S  S  S  S  S  S  S  S S S S S S S S S
|-----------------------------------------|
|-----------------------------------------|
|-----------------------------------------|
|-----------------------------------------|
|-10-10-10-10-10-10-10-10-9-9-9-9-9-9-9-9-|
|-----------------------------------------|


   S  S  S  S S S S S  S  S  S  S S S S S
|-------------------------------------------|
|-------------------------------------------|
|-------------------------------------------|
|-------------9-9-9-9-----------------------|
|-10-10-10-10---------10-10-10-10-9-9-9-9---|
|-------------------------------------------|


   S  S  S  S S S S S S S S S S S S S
|-------------------------------------|
|-------------------------------------|
|-------------------------------------|
|-------------------------------------|
|-10-10-10-10-7-7-7-7-9-9-9-9-9-9-9-9-|
|-------------------------------------|


   S  S  S  S  S S S S  S  S  S  S S S S S
|-------------------------------------------|
|-------------------------------------------|
|-------------------------------------------|
|------------------9-9----------------------|
|-10-10-10-10--9-9-----10-10-10-10-9-9-9-9--|
|-------------------------------------------|


   S  S  S  S  S  S  S  S S S S S S S S S
|-----------------------------------------|
|-----------------------------------------|
|-----------------------------------------|
|-----------------------------------------|
|-10-10-10-10-10-10-10-10-9-9-9-9-9-9-9-9-|
|-----------------------------------------|
|
|  H                      H
|-----------------------------------------|
|-----------------------------------------|
|-----------------------------------------|
|-----------------------------------------|
|-----------------------------------------|
|--8----------------------7---------------|


   S  S  S  S S S S S  S  S  S  S S S S S
|-------------------------------------------|
|-------------------------------------------|
|-------------------------------------------|
|-------------9-9-9-9-----------------------|
|-10-10-10-10---------10-10-10-10-9-9-9-9---|
|-------------------------------------------|
|
|  Q          Q        Q          Q
|-------------------------------------------|
|-------------------------------------------|
|-------------------------------------------|
|-------------------------------------------|
|-------------7-----------------------------|
|--8-------------------8----------7---------|


   S  S  S  S S S S S S S S S S S S S
|-------------------------------------|
|-------------------------------------|
|-------------------------------------|
|-------------------------------------|
|-10-10-10-10-7-7-7-7-9-9-9-9-9-9-9-9-|
|-------------------------------------|
|
|  Q          Q       H
|-------------------------------------|
|-------------------------------------|
|-------------------------------------|
|-------------------------------------|
|-------------------------------------|
|--8----------5-------7---------------|


   S  S  S  S S S S S  S  S  S  S S S S S
|-------------------------------------------|
|-------------------------------------------|
|-------------------------------------------|
|-----------------9-9-----------------------|
|-10-10-10-10-9-9-----10-10-10-10-9-9-9-9---|
|-------------------------------------------|
|
|  Q          E   E    Q          Q
|-------------------------------------------|
|-------------------------------------------|
|-------------------------------------------|
|-------------------------------------------|
|-----------------7-------------------------|
|--8----------7--------8----------7---------|


   S  S  S  S  S  S  S  S S S S S S S S S
|-----------------------------------------|
|-----------------------------------------|
|-----------------------------------------|
|-----------------------------------------|
|-10-10-10-10-10-10-10-10-9-9-9-9-9-9-9-9-|
|-----------------------------------------|
|
|  S  S  S  S  S  S  S  S S S S S S S S S
|-----------------------------------------|
|-----------------------------------------|
|-----------------------------------------|
|-----------------------------------------|
|-----------------------------------------|
|--8--8--8--8--8--8--8--8-7-7-7-7-7-7-7-7-|


   S  S  S  S S S S S  S  S  S  S S S S S
|-------------------------------------------|
|-------------------------------------------|
|-------------------------------------------|
|-------------9-9-9-9-----------------------|
|-10-10-10-10---------10-10-10-10-9-9-9-9---|
|-------------------------------------------|
|
|  S  S  S  S S S S S  S  S  S  S S S S S
|-------------------------------------------|
|-------------------------------------------|
|-------------------------------------------|
|-------------------------------------------|
|-------------7-7-7-7-----------------------|
|--8--8--8--8----------8--8--8--8-7-7-7-7---|


   S  S  S  S S S S S S S S S S S S S
|-------------------------------------|
|-------------------------------------|
|-------------------------------------|
|-------------------------------------|
|-10-10-10-10-7-7-7-7-9-9-9-9-9-9-9-9-|
|-------------------------------------|
|
|  S  S  S  S S S S S S S S S S S S S
|-------------------------------------|
|-------------------------------------|
|-------------------------------------|
|-------------------------------------|
|-------------------------------------|
|--8--8--8--8-5-5-5-5-7-7-7-7-7-7-7-7-|


   S  S  S  S S S S S  S  S  S  S S S S S
|-------------------------------------------|
|-------------------------------------------|
|-------------------------------------------|
|-----------------9-9-----------------------|
|-10-10-10-10-9-9-----10-10-10-10-9-9-9-9---|
|-------------------------------------------|
|
|  S  S  S  S S S S S  S  S  S  S S S S S
|-------------------------------------------|
|-------------------------------------------|
|-------------------------------------------|
|-------------------------------------------|
|-----------------7-7-----------------------|
|--8--8--8--8-7-7------8--8--8--8-7-7-7-7---|


   S  S  S  S  S  S  S  S S S S S S S S S
|-----------------------------------------|
|-----------------------------------------|
|-----------------------------------------|
|-----------------------------------------|
|-10-10-10-10-10-10-10-10-9-9-9-9-9-9-9-9-|
|-----------------------------------------|
|
|  S  S  S  S  S  S  S  S S S S S S S S S
|-----------------------------------------|
|-----------------------------------------|
|-----------------------------------------|
|-----------------------------------------|
|-----------------------------------------|
|--3--3--3--3--3--3--3--3-2-2-2-2-2-2-2-2-|


   S  S  S  S S S S S  S  S  S  S S S S S
|-------------------------------------------|
|-------------------------------------------|
|-------------------------------------------|
|-------------9-9-9-9-----------------------|
|-10-10-10-10---------10-10-10-10-9-9-9-9---|
|-------------------------------------------|
|
|  S  S  S  S S S S S  S  S  S  S S S S S
|-------------------------------------------|
|-------------------------------------------|
|-------------------------------------------|
|-------------------------------------------|
|-------------2-2-2-2-----------------------|
|--3--3--3--3----------3--3--3--3-2-2-2-2---|


   S  S  S  S S S S S S S S S S S S S
|-------------------------------------|
|-------------------------------------|
|-------------------------------------|
|-------------------------------------|
|-10-10-10-10-7-7-7-7-9-9-9-9-9-9-9-9-|
|-------------------------------------|
|
|  S  S  S  S S S S S S S S S S S S S
|-------------------------------------|
|-------------------------------------|
|-------------------------------------|
|-------------------------------------|
|-------------------------------------|
|--3--3--3--3-0-0-0-0-2-2-2-2-2-2-2-2-|


   S  S  S  S S S S S  S  S  S  S S S S S
|-------------------------------------------|
|-------------------------------------------|
|-------------------------------------------|
|-----------------9-9-----------------------|
|-10-10-10-10-9-9-----10-10-10-10-9-9-9-9---|
|-------------------------------------------|
|
|  S  S  S  S S S S S  S  S  S  S S S S S
|-------------------------------------------|
|-------------------------------------------|
|-------------------------------------------|
|-------------------------------------------|
|-----------------2-2-----------------------|
|--3--3--3--3-2-2------3--3--3--3-2-2-2-2---|



    Gtrs I, II
    S S S S S S S S S S S S S S S S   S S S S S S S S S S S S S S S S
||----------------------------------|----------------------------------|
||o---------------------------------|----------------------------------|
||--6-6-6-6-6-6-6-6-6-6-6-6-6-6-6-6-|-8-8-8-8-8-8-8-8-9-9-9-9-9-9-9-9--|
||----------------------------------|----------------------------------|
||o---------------------------------|----------------------------------|
||----------------------------------|----------------------------------|


                                    1.
  S S S S S S S S S S S S S S S S   S S S S S S S S S S S S S S S S
|---------------------------------|------------------------------------||
|---------------------------------|-----------------------------------o||
|---------------------------------|------------------------------------||
|-7-7-7-7-7-7-7-7-7-7-7-7-7-7-7-7-|-7-7-7-7-7-7-7-7-7-7-7-7-7-7-7-7----||
|---------------------------------|-----------------------------------o||
|---------------------------------|------------------------------------||


  2.        
  E E H.          S S S S S S S S S S S S S S S S
|-------------||----------------------------------|
|-------------||o---------------------------------|
|-------------||--6-6-6-6-6-6-6-6-6-6-6-6-6-6-6-6-|
|-7-----------||----------------------------------|
|-------------||o---------------------------------|
|-------------||----------------------------------|


  S S S S S S S S S S S S S S S S
|-----------------------------------|
|-----------------------------------|
|-8-8-8-8-8-8-8-8-9-9-9-9-9-9-9-9---|
|-----------------------------------|
|-----------------------------------|
|-----------------------------------|


  S S S S S S S S S S S S S S S S   S S S S S S S S S S S S S S S S
|---------------------------------|------------------------------------||
|---------------------------------|-----------------------------------o||
|---------------------------------|------------------------------------||
|-7-7-7-7-7-7-7-7-7-7-7-7-7-7-7-7-|-7-7-7-7-7-7-7-7-7-7-7-7-7-7-7-7----||
|---------------------------------|-----------------------------------o||
|---------------------------------|------------------------------------||


    S S S S S S S S S S S S S S S S   S S S S S S S S S S S S S S S S
||----------------------------------|----------------------------------|
||o---------------------------------|----------------------------------|
||----------------------------------|----------------------------------|
||----------------------------------|----------------------------------|
||o-4-4-4-4-4-4-4-4-4-4-4-4-4-4-4-4-|-6-6-6-6-6-6-6-6-7-7-7-7-7-7-7-7--|
||----------------------------------|----------------------------------|


  1.
  S S S S S S S S S S S S S S S S   S S S S S S S S S S S S S S S S
|---------------------------------|------------------------------------||
|---------------------------------|-----------------------------------o||
|---------------------------------|------------------------------------||
|---------------------------------|------------------------------------||
|---------------------------------|-----------------------------------o||
|-5-5-5-5-5-5-5-5-5-5-5-5-5-5-5-5-|-5-5-5-5-5-5-5-5-5-5-5-5-5-5-5-5----||


  2.
  S S S S S S S S S S S S S S S S
|---------------------------------|
|---------------------------------|
|---------------------------------|
|---------------------------------|
|-9-9-9-9-9-9-9-9-9-9-9-9-9-9-9-9-|
|---------------------------------|


   S  S  S  S  S  S  S  S  S  S  S  S  S  S  S  S
|---------------------------------------------------|
|---------------------------------------------------|
|---------------------------------------------------|
|---------------------------------------------------|
|-12-12-12-12-12-12-12-12-12-12-12-12-12-12-12-12---|
|---------------------------------------------------|


   E Q H.
|----------*|----|
|----------*|----|
|----------*|----|
|----------*|----|
|-12-------*|----|
|----------*|----|




--------------------------------------------------------------------------------
--------------------------------------------------------------------------------
--------------------------------------------------------------------------------

Band : The Berzerker
Song : Massacre
Album : The Berzerker
Website : www.TheBerzerker.com



Gtr I (A D G C E A) - 'Untitled'



    Q=140
   4/4
    Gtrs I, II
    S S S S Q  S S S S Q    e e Q  e e Q
||------------------------|---------------|
||o-----------------------|---------------|
||----------5----------6--|-----5------5--|
||------------------------|-----5------5--|
||o---------3----------4--|-6-5-3--6-5-3--|
||--5-4-3-4----6-5-4-5----|-4-3-3--4-3-3--|


  e e E E e e E E   S S S S Q  S S S S S S E   4x
|-----------------|----------------------------||
|-----------------|---------------------------o||
|-----5S6-----6S7-|---------5--------------5---||
|-----------------|----------------------------||
|-6-5-3S4-7-6-4S5-|---------3--------------3--o||
|-4-3-----5-4-----|-5-4-3-4----5-4-3-4-3-3-----||


  Q  S S Q  E S S E    Q   S  S Q  E  S  S E
|-------------------|------------------------|
|-------------------|------------------------|
|-6------5--5-------|-10--------9--9---------|
|-------------------|------------------------|
|-4--7-6-3--3-6-6-5-|--8--11-10-7--7-10-10-9-|
|----5-4------4-4-3-|------9--8-------8--8-7-|


  Q  S S Q  E S S E    E  a   E  E Q  E  S  S E
|-------------------|----------------------------|
|-------------------|----------------------------|
|-6------5--5-------|-10-10-/12-10-9--9----------|
|-------------------|----------------------------|
|-4--7-6-3--3-6-6-5-|--8--8-/10--8-7--7-10-10-9--|
|----5-4------4-4-3-|--------------------8--8-7--|


  Q  S S Q  E S S E    Q   S  S Q  E  S  S E
|-------------------|------------------------|
|-------------------|------------------------|
|-6------5--5-------|-10--------9--9---------|
|-------------------|------------------------|
|-4--7-6-3--3-6-6-5-|--8--11-10-7--7-10-10-9-|
|----5-4------4-4-3-|------9--8-------8--8-7-|


                     2/4
  Q  S S Q  E S S E     E  A   E  E   E
|-------------------|---------------------|
|-------------------|---------------------|
|-6------5--5-------|--10-10-/12-10---9---|
|-------------------|---------------------|
|-4--7-6-3--3-6-6-5-|---8--8-/10--8---7---|

|----5-4------4-4-3-|---------------------|


   4/4
    S S E S S Q  E  S S E   S S Q  e S S E S S E    Q  S S E S S  E Q   3x
||------------------------|-----------------------|---------------------||
||o-----------------------|-----------------------|--------------------o||
||------------------------|-----------------------|-----------------6---||
||--7-6---6-5------10-9---|-9-8----8-7-6---6-5----|---10-9---9-8----7---||
||o-7-6---6-5------10-9---|-9-8----8-7-6---6-5----|---10-9---9-8----7--o||
||--5-4---4-3-------8-7---|-7-6----6-5-4---4-3----|----8-7---7-6----5---||


  S S E S S Q  E  S S E   S S Q  e S S E Q          W
|-----------------------|-------------------|------------|
|-----------------------|-------------------|------------|
|-----------------------|-------------------|------------|
|-7-6---6-5------10-9---|-9-8----8-7-6------|------------|
|-7-6---6-5------10-9---|-9-8----8-7-6------|------------|
|-5-4---4-3-------8-7---|-7-6----6-5-4------|------------|

(must be downpicked)

    S S S S E S S S S E  S S  S S   S S S S  E S S S S E  S S E    16x
||--------------------------------|---------------------------------||
||o-------------------------------|--------------------------------o||
||----------6---------5-----------|---------10---------9------7-----||
||--------------------------------|---------------------------8-----||
||o-7-6-5---4-6-6-5---3--6-5--5-6-|1110-9-10-81010-9---7--9-9-8----o||
||--5-4-3-----4-4-3------4-3--3-4-|-9-8-7-8----8-8-7------7-7-6-----||


    S S E S S Q  E  S S E   S S Q  e S S E S S E   Q   S S E S S E Q
||------------------------|----------------------|---------------------||
||o-----------------------|----------------------|--------------------o||
||------------------------|----------------------|-----------------6---||
||--7-6---6-5------10-9---|-9-8----8-7-6---6-5---|----10-9---9-8---7---||
||o-7-6---6-5------10-9---|-9-8----8-7-6---6-5---|----10-9---9-8---7--o||
||--5-4---4-3-------8-7---|-7-6----6-5-4---4-3---|-----8-7---7-6---5---||


    S S S S E S S S S E S S S S   S S S S  E S S S S E S S E  4x
||------------------------------|-----------------------------||
||o-----------------------------|----------------------------o||
||----------6---------5---------|---------10---------9-----7--||
||------------------------------|--------------------------8--||
||o-7-6-5---4-6-5-5---3-6-5-5-6-|1110-910--81010-9---7-9-9-8-o||
||--5-4-3-----4-4-3-----4-3-3-4-|-9-8-7-8----8-8-7-----7-7-6--||


    S S S S Q  S S S S Q    e e Q  e e Q
||------------------------|---------------|
||o-----------------------|---------------|
||----------5----------6--|-----5------5--|
||------------------------|-----5------5--|
||o---------3----------4--|-6-5-3--6-5-3--|
||--5-4-3-4----6-5-4-5----|-4-3-3--4-3-3--|


  e e E E e e E E   S S S S Q  S S S S S S E
|-----------------|-----------------------------||
|-----------------|----------------------------o||
|-----5S6-----6S7-|---------5--------------5----||
|-----------------|-----------------------------||
|-6-5-3S4-7-6-4S5-|---------3--------------3---o||
|-4-3-----5-4-----|-5-4-3-4----5-4-3-4-3-3------||


    S S S S E E. S E. S E  8x     E E  E E E  E E E   E E  E E E  E E E
||-------------------------||-||--------------------|-------------------|
||o-----------------------o||-||o-------------------|-------------------|
||-------------------------||-||--------------------|-------------------|
||--5-4-2-4-5-5----5----5--||-||--------------------|-------------------|
||o-----------5----5----5-o||-||o---9-12---7-11-7---|---8-11---6-10-6---|
||------------3----3----3--||-||--9------9--------9-|-8------8--------8-|


  E E  E E E  E E E   E E  E E E  E  S  S  E  3x
|-------------------|-------------------------||
|-------------------|------------------------o||
|-------------------|---------------12S14S12--||
|-------------------|-------------------------||
|---9-12---7-11-7---|---8-11---6-10-10S12S10-o||
|-9------9--------9-|-8------8----------------||


  S S S S  S  S S S S S  S  S S S S S
|-------------------------------------|
|-------------------------------------|
|-------------------------------------|
|-------------------------------------|
|-----9-9-12-12-----7-7-11-11-7-7-----|
|-9-9-----------9-9---------------9-9-|


  S S S S  S  S S S S S  S  S S S S S   S S S S  S  S S S S S  S  S S S S S
|-------------------------------------|-------------------------------------|
|-------------------------------------|-------------------------------------|
|-------------------------------------|-------------------------------------|
|-------------------------------------|-------------------------------------|
|-----8-8-11-11-----6-6-10-10-6-6-----|-----9-9-12-12-----7-7-11-11-7-7-----|
|-8-8-----------8-8---------------8-8-|-9-9-----------9-9---------------9-9-|


  S S S S  S  S S S S S  S  S  S  S  S  S
|-----------------------------------------*|
|-----------------------------------------*|
|-----------------------------12-14-12-12-*|
|-----------------------------------------*|
|-----8-8-11-11-----6-6-10-10-10-12-10-10-*|
|-8-8-----------8-8-----------------------*|




--------------------------------------------------------------------------------
--------------------------------------------------------------------------------
--------------------------------------------------------------------------------

Band : The Berzerker
Song : CHRONOLOGICAL ORDER OF PUTREFACTION
Album : The Berzerker
Website : www.TheBerzerker.com

Gtr I (A D G C E A) - 'Untitled'
Gtr II (A D G C E A) - 'Untitled'


  Q=90
 4/4
  Wx12
|---------|
|---------|
|---------|
|---------|
|---------|
|---------|


    Gtrs I, II
    W           +H      E E E E    W        H    H
||------------|------------------|--------|----------||
||o-----------|------------------|--------|---------o||
||--3---------|-(3)--------------|-1------|-4----6---||
||--4---------|-(4)-----4---3----|-2------|-5----7---||
||o-4---------|-(4)-----4---3----|-2------|-5----7--o||
||--2---------|-(2)-----2---1----|-0------|-3----5---||


  e E Q  H      W          W          W
|-------------|----------|----------|------|
|-------------|----------|----------|------|
|-3-----------|----------|----------|------|
|-4-----------|----------|----------|------|
|-4-----------|----------|----------|------|
|-2-----------|----------|----------|------|


    H.      e e   H   Q a Q   4x     Q S S E S S E Q   E. S S S S S E E Q
||--------------|-------------||-||------------------|--------------------|
||o-------------|------------o||-||o-----------------|--------------------|
||--3-----------|-1-----------||-||--3-----------6-4-|-3--------------7-6-|
||--4-----------|-2-----------||-||--4-----------7-5-|-4------------4-8-7-|
||o-4-------4-3-|-2---5-4s5--o||-||o-4-4-4-4-4-4-7-5-|-4--4-4-4-4-4-4-8-7-|
||--2-------2-1-|-0---3-2s3---||-||--2-2-2-2-2-2-5-3-|-2--2-2-2-2-2-2-6-5-|


  Q.   S S  S S E Q   Q.   Q.  Q   4x W          +W
|-------------------|--------------||----------|--------|
|-------------------|-------------o||----------|--------|
|-3-------------6-4-|-3----9---6---||-3--------|-(3)----|
|-4-------------7-5-|-4---10---7---||-4--------|-(4)----|
|-4----4-4--4-4-7-5-|-4---10---7--o||-4--------|-(4)----|
|-2----2-2--2-2-5-3-|-2----8---5---||-2--------|-(2)----|


  Wx4      W         +W         W       +W
|--------|---------|----------|-------|--------|
|--------|---------|----------|-------|--------|
|--------|---------|----------|-------|--------|
|--------|---------|----------|-------|--------|
|--------|-9-------|-(9)------|-7-----|-(7)----|
|--------|---------|----------|-------|--------|


  W          +W          W         H     H        Wx8
|----------|-----------|-------|------------||----------*|
|----------|-----------|-------|------------||----------*|
|----------|-----------|-------|------------||----------*|
|----------|-----------|-------|------------||----------*|
|-9--------|-(9)-------|-7-----|-/10---/12--||----------*|
|----------|-----------|-------|------------||----------*|




--------------------------------------------------------------------------------
--------------------------------------------------------------------------------
--------------------------------------------------------------------------------

Band : The Berzerker
Song : Deform
Album : The Berzerker
Website : www.TheBerzerker.com


Gtr I (A D G C E A) 
Gtr II (A D G C E A)


 
 4/4
  Gtr I
  E E E E E E E E   E E E E E E S S S S   E E E E E E E E   E E E E E E E E
|-----------------|---------------------|-----------------|------------------|
|-----------------|---------------------|-----------------|------------------|
|-----------------|---------------------|---------------2-|------------------|
|-----------------|---------------------|---------------2-|------------------|
|-----------------|---------------------|---------------0-|---------3-2-3-3--|
|-0-0-0-0-0-0-0-0-|-0-0-0-0-0-0-0-0-0-0-|-0-0-0-0-0-0-0---|-0-0-0-0-1-0-1-1--|


  E E E E E E E E   E E E E E E E E   E E E E E E E E   E E E E Q  Q
|-----------------|-----------------|-----------------|---------------||
|-----------------|-----------------|-----------------|---------------||
|-----------------|---------------4-|-----------------|---------------||
|-----------------|---------------4-|-----------------|---------3-----||
|-----------------|---------------2-|-----------------|---------3-----||
|-0-0-0-0-0-0-0-0-|-0-0-0-0-0-0-0---|-0-0-0-0-0-0-0-0-|-0-0-0-0-1-----||


    Gtrs I, II
    S S S S S S S S S S S S S S S S   S S S S S S S S  S  S  S  S  S  S  S  S
||----------------------------------|------------------------------------------|
||o---------------------------------|------------------------------------------|
||----------------------------------|------------------------------------------|
||----------------------------------|------------------------------------------|
||o-7-7-7-7-7-7-7-7-7-7-7-7-7-7-7-7-|-8-8-8-8-8-8-8-8-10-10-10-10-10-10-10-10--|
||----------------------------------|------------------------------------------|


  S S S S S S S S S S S S S S S S   S S S S S S S S S S S S S S S S
|---------------------------------|------------------------------------||
|---------------------------------|-----------------------------------o||
|---------------------------------|------------------------------------||
|---------------------------------|------------------------------------||
|-7-7-7-7-7-7-7-7-7-7-7-7-7-7-7-7-|-8-8-8-8-8-8-8-8-5-5-5-5-5-5-5-5---o||
|---------------------------------|------------------------------------||


    S S S S S S S S S S S S S S S S   S S S S S S S S S S S S S S S S
||----------------------------------|----------------------------------|
||o---------------------------------|----------------------------------|
||----------------------------------|----------------------------------|
||--------------------------5-5-5-5-|---------5-5-5-5------------------|
||o-7-7-7-7-5-5-5-5-8-8-8-8---------|-7-7-7-7---------5-5-5-5-8-8-8-8--|
||----------------------------------|----------------------------------|


  Gtr I
  S S S S S S S S e E e E    S  S  S  S  S  S  S  S S S S S S S S S
|-------------------------|---------------------------------------------||
|-------------------------|--------------------------------------------o||
|-------------------------|---------------------------------------------||
|-------------------------|---------------------------------------------||
|-7-7-7-7-7-7-7-7-5---5---|-11-11-11-11-11-11-11-11-8-8-8-8-8-8-8-8----o||
|-------------------------|---------------------------------------------||
|
| Gtr II
| S S S S S S S S e E e E    S  S  S  S  S  S  S  S S S S S S S S S
|-------------------------|---------------------------------------------||
|-------------------------|--------------------------------------------o||
|-------------------------|---------------------------------------------||
|-------------------------|---------------------------------------------||
|-7-7-7-7-7-7-7-7-5---5---|--8--8--8--8--8--8--8--8-5-5-5-5-5-5-5-5----o||
|-------------------------|---------------------------------------------||


  Wx8
|--------|
|--------|
|--------|
|--------|
|--------|
|--------|


    S S S S S S S S S S S S S S S S   S S S S S S S S S S S S S S S S
||----------------------------------|----------------------------------|
||o---------------------------------|----------------------------------|
||----------------------------------|----------------------------------|
||--------------------------5-5-5-5-|---------5-5-5-5------------------|
||o-7-7-7-7-5-5-5-5-8-8-8-8---------|-7-7-7-7---------5-5-5-5-8-8-8-8--|
||----------------------------------|----------------------------------|


  Gtr I
  S S S S S S S S e E e E    S  S  S  S  S  S  S  S S S S S S S S S
|-------------------------|---------------------------------------------||
|-------------------------|--------------------------------------------o||
|-------------------------|---------------------------------------------||
|-------------------------|---------------------------------------------||
|-7-7-7-7-7-7-7-7-5---5---|-11-11-11-11-11-11-11-11-8-8-8-8-8-8-8-8----o||
|-------------------------|---------------------------------------------||
|
| Gtr II
| S S S S S S S S e E e E    S  S  S  S  S  S  S  S S S S S S S S S
|-------------------------|---------------------------------------------||
|-------------------------|--------------------------------------------o||
|-------------------------|---------------------------------------------||
|-------------------------|---------------------------------------------||
|-7-7-7-7-7-7-7-7-5---5---|--8--8--8--8--8--8--8--8-5-5-5-5-5-5-5-5----o||
|-------------------------|---------------------------------------------||


    W          H    H      W          W
||-----------|-----------|----------|-------||
||o----------|-----------|----------|------o||
||-----------|-----------|----------|-------||
||--2--------|-3----5----|-2--------|-3-----||
||o-2--------|-3----5----|-2--------|-3----o||
||--0--------|-1----3----|-0--------|-1-----||


    Gtr I
    E E E E E E E E   E E E E E E Q      Q  E E E E E E
||------------------|-----------------||----------------|
||o-----------------|----------------o||----------------|
||------------------|-----------------||----------------|
||------------------|-------------3---||-4--------------|
||o-6-5-6-8-7-6-3-6-|---6-5-6---6-3--o||-4--6-8-7-6-5-6-|
||--4-3-4-6-5-4-1-4-|---4-3-4---4-1---||-2--4-6-5-4-3-4-|


  E E E E E E Q   Q E E E E E E            W
|---------------|---------------|---------------|
|---------------|---------------|---------------|
|---------------|---------------|---------------|
|-------------3-|-4-------------|---------------|
|---6-3-3---2-3-|-4-6-8-7-6-5-6-|---------------|
|---4-1-4---4-1-|-2-4-6-5-4-3-4-|---------------|


    Gtrs I, II
    Q  S S S S S S S S S S S S   S S S S S S S S S S S S S S S S
||-----------------------------|---------------------------------|
||o----------------------------|---------------------------------|
||-----------------------------|---------------------------------|
||--4--7-7-5-5-4-4-9-9-5-5-7-7-|-7-7-7-7-9-9-5-5-5-5-7-7-4-4-4-4-|
||o-4--------------------------|---------------------------------|
||--2--------------------------|---------------------------------|


  Q  S S S S S S S S S S S S   S S S S S S S S  q     q     4x
|----------------------------|------------------------------||
|----------------------------|-----------------------------o||
|----------------------------|------------------------------||
|-4--7-7-5-5-4-4-9-9-5-5-7-7-|-7-7-7-7-9-9-5-5--4-----4-----||
|-4--------------------------|------------------4-----4----o||
|-2--------------------------|------------------2-----2-----||


    Gtr I
    E E E E E E E E   +E  E E Q E E E   E E E E Q E E E E Q E E E E
||------------------|-----------------|---------------------------------||
||o-----------------|-----------------|--------------------------------o||
||----------------5-|-(5)-------------|---------------------------------||
||----------------5-|-(5)-------------|---------5-3-4-3-2-5-------------||
||o-4-7-8-7-5-2-7-3-|-(3)-7-5-8-7-5-2-|-4-7-8-7-5-1-2-1-0-5-5-7-5-2----o||
||--2-5-6-5-3-0-5---|-----5-3-6-5-3-0-|-2-5-6-5-3---------3-3-5-3-0-----||


    Gtrs I, II
    E E E E E E E E   +E  E E Q  E E E   E E E E Q  E E   E E Q  E E E E 4x
||------------------|------------------|----------------|----------------||
||o-----------------|------------------|----------------|---------------o||
||----------------5-|-(5)--------------|----------------|----------------||
||----------------5-|-(5)--------------|---------5--3-4-|-3-2-5----------||
||o-4-7-8-7-5-2-7-3-|-(3)-7-5-8--7-5-2-|-4-7-8-7-5--1-2-|-1-0-5--5-7-5-2o||
||--2-5-6-5-3-0-5---|-----5-3-6--5-3-0-|-2-5-6-5-3------|-----3--3-5-3-0-||


    Q  E E E E E E   E E E E E E E E   Q  E E E E E E   E E E E E E Q
||-----------------|-----------------|----------------|---------------|
||o----------------|-----------------|----------------|---------------|
||-----------------|-----------------|----------------|---------------|
||--4--------------|-----------------|-4--------------|-------------3-|
||o-4--------------|-----------------|-4--------------|-------------3-|
||--2--2-2-2-2-2-2-|-5-5-5-5-6-6-1-1-|-2--2-2-2-2-2-2-|-5-5-5-5-6-6-1-|


  Q  E E E E E E   E E E E E E E E   Q E E E E E E   Q E E E E q
|----------------|-----------------|---------------|-----------------||
|----------------|-----------------|---------------|----------------o||
|----------------|-----------------|-6-------------|-----------------||
|-4--------------|-----------------|-6-------------|-8---------5-----||
|-4--------------|-----------------|-4-4-4-4-4-4-4-|-8---------5----o||
|-2--2-2-2-2-2-2-|-5-5-5-5-6-6-6-6-|---------------|-6-6-6-6-6-3-----||


  S S S S S S S S S S S S S S S S   S S S S S S S S S S S S S S S S
|---------------------------------|-----------------------------------|
|---------------------------------|-----------------------------------|
|---------------------------------|-----------------------------------|
|---------------------------------|-8-8-8-8-8-8-8-8-8-8-8-8-8-8-8-8---|
|-9-9-9-9-9-9-9-9-9-9-9-9-9-9-9-9-|-----------------------------------|
|---------------------------------|-----------------------------------|


    S S S S S S S S S S S S S S S S   S S S S S S S S S S S S S S S S
||----------------------------------|-----------------------------------||
||o---------------------------------|-----------------------------------||
||----------------------------------|-----------------------------------||
||----------------------------------|-8-7-7-7-7-7-7-7-7-7-7-7-7-7-7-7---||
||o-9-9-9-9-9-9-9-9-9-9-9-9-9-9-9-9-|-----------------------------------||
||----------------------------------|-----------------------------------||


    S S S S S S S S S S S S S S S S   S S S S S S S S S S S S S S S S
||----------------------------------|-----------------------------------||
||o---------------------------------|-----------------------------------||
||----------------------------------|-----------------------------------||
||----------------------------------|-7-7-7-7-7-7-7-7-7-7-7-7-7-7-7-7---||
||o-9-9-9-9-9-9-9-9-9-9-9-9-9-9-9-9-|-----------------------------------||
||----------------------------------|-----------------------------------||



   S  S  S  S  S  S  S  S  S  S  S  S  S  S  S  S
|-------------------------------------------------|
|-------------------------------------------------|
|-------------------------------------------------|
|-11-11-11-11-11-11-11-11-11-11-11-11-11-11-11-11-|
|-------------------------------------------------|
|-------------------------------------------------|


   S  S  S  S  S  S  S  S S S S S S S S S
|-------------------------------------------|
|-------------------------------------------|
|-------------------------------------------|
|-11-11-11-11-11-11-11-11-8-8-8-8-7-7-7-7---|
|-------------------------------------------|
|-------------------------------------------|


                                    1.        2.
    W      +H     H      W          W         W
||-------|-------------|----------|--------||------|
||o------|--------3----|-2--------|-------o||-6----|
||--3----|-(3)----3----|-2--------|-2------||-6----|
||--4----|-(4)----3----|-2--------|-3------||-6----|
||o-4----|-(4)----1----|-0--------|-3-----o||-4----|
||--2----|-(2)---------|----------|-1------||------|


  Q  E E E E E E   E E E E E E E E   Q  E E E E E E   E E E E E E Q
|----------------|-----------------|----------------|----------------|
|----------------|-----------------|----------------|----------------|
|----------------|-----------------|----------------|----------------|
|-4--------------|-----------------|-4--------------|-------------3--|
|-4--------------|-----------------|-4--------------|-------------3--|
|-2--2-2-2-2-2-2-|-5-5-5-5-6-6-1-1-|-2--2-2-2-2-2-2-|-5-5-5-5-6-6-1--|


  Q  E E E E E E   E E E E E E E E   Q  E E E E E E   Q  E E E E q
|----------------|-----------------|----------------|---------------|
|----------------|-----------------|----------------|---------------|
|----------------|-----------------|-6--------------|---------------|
|-4--------------|-----------------|-6--------------|-8----------5--|
|-4--------------|-----------------|-4--4-4-4-4-4-4-|-8----------5--|
|-2--2-2-2-2-2-2-|-5-5-5-5-6-6-6-6-|----------------|-6--6-6-6-6-3--|


  S S S S S S S S S S S S S S S S   S S S S S S S S S S S S S S S S
|---------------------------------|-----------------------------------|
|---------------------------------|-----------------------------------|
|---------------------------------|-----------------------------------|
|---------------------------------|-8-8-8-8-8-8-8-8-8-8-8-8-8-8-8-8---|
|-9-9-9-9-9-9-9-9-9-9-9-9-9-9-9-9-|-----------------------------------|
|---------------------------------|-----------------------------------|


    S S S S S S S S S S S S S S S S   S S S S S S S S S S S S S S S S
||----------------------------------|-----------------------------------||
||o---------------------------------|-----------------------------------||
||----------------------------------|-----------------------------------||
||----------------------------------|-8-7-7-7-7-7-7-7-7-7-7-7-7-7-7-7---||
||o-9-9-9-9-9-9-9-9-9-9-9-9-9-9-9-9-|-----------------------------------||
||----------------------------------|-----------------------------------||


    S S S S S S S S S S S S S S S S   S S S S S S S S S S S S S S S S
||----------------------------------|-----------------------------------||
||o---------------------------------|-----------------------------------||
||----------------------------------|-----------------------------------||
||----------------------------------|-7-7-7-7-7-7-7-7-7-7-7-7-7-7-7-7---||
||o-9-9-9-9-9-9-9-9-9-9-9-9-9-9-9-9-|-----------------------------------||
||----------------------------------|-----------------------------------||

   S  S  S  S  S  S  S  S  S  S  S  S  S  S  S  S
|-------------------------------------------------|
|-------------------------------------------------|
|-------------------------------------------------|
|-11-11-11-11-11-11-11-11-11-11-11-11-11-11-11-11-|
|-------------------------------------------------|
|-------------------------------------------------|


   S  S  S  S  S  S  S  S S S S S S S S S
|-------------------------------------------|
|-------------------------------------------|
|-------------------------------------------|
|-11-11-11-11-11-11-11-11-8-8-8-8-7-7-7-7---|
|-------------------------------------------|
|-------------------------------------------|


  W
|----------*|----|
|----------*|----|
|----------*|----|
|-4--------*|----|
|-4--------*|----|
|-2--------*|----|




--------------------------------------------------------------------------------
--------------------------------------------------------------------------------
--------------------------------------------------------------------------------

Band : The Berzerker
Song : Slit Down
Album : The Berzerker
Website : www.TheBerzerker.com

Gtr I (A D G C E A) 
Gtr II (A D G C E A) 


   
   4/4
    Gtr I
    S S S S S S S S S S S S S S S S   S S S S S S S S S S S S S S S S  3x
||----------------------------------|----------------------------------||
||o---------------------------------|---------------------------------o||
||----------------------------------|----------------------------------||
||----------------------------------|----------------------------------||
||o-0-0-0-0-0-0-4-4-3-3-3-3-4-4-3-3-|-0-0-4-4-3-3-4-4-6-6-4-4-3-3-4-4-o||
||----------------------------------|----------------------------------||


                                                         ~~~
  S S S S S S S S S S S S S S S S   S S S S S S S S e e  Q
|---------------------------------|----------------------------|
|---------------------------------|----------------------------|
|---------------------------------|----------------------------|
|---------------------------------|---------------------[5]----|
|-0-0-0-0-0-0-4-4-3-3-3-3-4-4-3-3-|-0-0-4-4-3-3-4-4-7-4--------|
|---------------------------------|----------------------------|


    Gtr I
    E E E  E  E  E  E E   E E E  E E E  E E
||----------------------|-------------------|
||o---------------------|-------------------|
||----------------------|-------------------|
||---------9--8--8------|--------8-7-7------|
||o-7-7-7----------10-7-|-6-6-6---------9-6-|
||----------------------|-------------------|
|
|   Gtr II
|   E E E  E  E  E  E E   E E E  E E E  E E
||----------------------|-------------------|
||o---------------------|-------------------|
||--------11-10-10------|-------10-9-9------|
||--9-9-9----------12-9-|-8-8-8--------11-8-|
||o---------------------|-------------------|
||----------------------|-------------------|


                       1.,2.,3.               4.
  E E E  E  E  E  E E   E E E  E E  E  E E  3x E E E  E E E Q
|---------------------|---------------------||----------------|
|---------------------|--------------------o||----------------|
|---------------------|---------------------||----------------|
|--------9--8--8------|--------8-7----------||--------8-7-----|
|-7-7-7----------10-7-|-6-6-6-------9--8-6-o||-6-6-6----------|
|---------------------|---------------------||----------------|
|
| E E E  E  E  E  E E   E E E  E E  E  E E  3x E E E  E E E Q
|---------------------|---------------------||----------------|
|---------------------|--------------------o||----------------|
|-------11-10-10------|-------10-9----------||-------10-9-----|
|-9-9-9----------12-9-|-8-8-8------11-10-8--||-8-8-8----------|
|---------------------|--------------------o||----------------|
|---------------------|---------------------||----------------|


    E E E E E E  E E   E E E E E E E E
||-------------------|-----------------|
||o------------------|-----------------|
||-------------------|-----------------|
||--------9-8-8------|-------8-7-7-----|
||o-7-7-7-------10-7-|-6-6-6-------9-6-|
||-------------------|-----------------|
|
|   E E E E E E  E E   E E E E E E E E
||-------------------|-----------------|
||o------------------|-----------------|
||-------------------|-----------------|
||-------------------|-----------------|
||o-------7-6-6------|-------6-5-5-----|
||--5-5-5--------8-5-|-4-4-4-------7-4-|


                    1.                   2.
  E E E E E E  E E   E E E E E E E E     E E  H.
|------------------|------------------||------------|
|------------------|-----------------o||------------|
|------------------|------------------||------------|
|-------9-8-8------|-------8-7--------||------------|
|-7-7-7-------10-7-|-6-6-6-----9-8-6-o||-6----------|
|------------------|------------------||------------|
|
| E E E E E E  E E   E E E E E E E E     E E  H.
|------------------|------------------||------------|
|------------------|-----------------o||------------|
|------------------|------------------||------------|
|------------------|------------------||------------|
|-------7-6-6------|-------6-5-------o||------------|
|-5-5-5--------8-5-|-4-4-4-----7-6-4--||-4----------|


    Gtrs I, II
    S S S S S S S S S S S S S S S S   S S S S S S S S S S S S S S S S   8x
||----------------------------------|-----------------------------------||
||o---------------------------------|----------------------------------o||
||----------------------------------|-----------------------------------||
||--6-6-6-6-6-6-6-6-6-6-6-6-6-6-----|-----------------------------------||
||o-----------------------------7-7-|-6-6-6-6-7-7-6-6-4-4-4-4-5-5-5-5--o||
||----------------------------------|-----------------------------------||


    Gtr I
    E E E E E E  E E   E E E E E E E E
||-------------------|-----------------|
||o------------------|-----------------|
||-------------------|-----------------|
||--------9-8-8------|-------8-7-7-----|
||o-7-7-7-------10-7-|-6-6-6-------9-6-|
||-------------------|-----------------|
|
|   Gtr II
|   E E E E E E  E E   E E E E E E E E
||-------------------|-----------------|
||o------------------|-----------------|
||-------------------|-----------------|
||-------------------|-----------------|
||o-------7-6-6------|-------6-5-5-----|
||--5-5-5--------8-5-|-4-4-4-------7-4-|


                    1.,2.,3.            4.
  E E E E E E  E E   E E E E E E E E  3x E E E E E E Q
|------------------|------------------||---------------*|
|------------------|-----------------o||---------------*|
|------------------|------------------||---------------*|
|-------9-8-8------|-------8-7--------||-------8-7-----*|
|-7-7-7-------10-7-|-6-6-6-----9-8-6-o||-6-6-6---------*|
|------------------|------------------||---------------*|
|
| E E E E E E  E E   E E E E E E E E  3x E E E E E E Q
|------------------|------------------||---------------*|
|------------------|-----------------o||---------------*|
|------------------|------------------||---------------*|
|------------------|------------------||---------------*|
|-------7-6-6------|-------6-5-------o||-------6-5-----*|
|-5-5-5--------8-5-|-4-4-4-----7-6-4--||-4-4-4---------*|




--------------------------------------------------------------------------------
--------------------------------------------------------------------------------
--------------------------------------------------------------------------------

Band : The Berzerker
Song : Febuary
Album : The Berzerker
Website : www.TheBerzerker.com

Gtr I (A D G C E A) 
Gtr II (A D G C E A) 


 
 4/4
  Gtrs I, II
  H   H     H    H     H    H      H    H
|---------|----------|----------|------------|
|---------|----------|----------|------------|
|-4---5---|-7---10---|-4----5---|--4---------|
|---------|----------|----------|-------3----|
|-2---3---|-5----8---|-2----3---|--2---------|
|---------|----------|----------|-------1----|


    Q  E E T T T T T T T T T T T T T T T T   Q  E Q   Q E   8x   Wx8
||-----------------------------------------|----------------||---------|
||o----------------------------------------|---------------o||---------|
||--4--5-----------------------------------|-4--5-------5---||---------|
||-------2---------------------------------|------3---------||---------|
||o-2--3-0-0-0-0-0-0-0-0-0-2-2-2-2-3-3-3-3-|-2--3-------3--o||---------|
||-----------------------------------------|------1-/12-----||---------|


  
    S S S S S S S S S S S S S S S S   S S S S S S S S S S S S S S S S
||----------------------------------|----------------------------------|
||o---------------------------------|----------------------------------|
||----------------------------------|----------------------------------|
||----------------------------------|----------------------------------|
||o---------------------------------|----------------------------------|
||--5-5-5-5-5-5-5-5-5-5-5-5-5-5-5-5-|-5-5-5-5-5-5-5-5-5-5-5-5-5-5-5-5--|


  S S S S S S S S S S S S S S S S   S S S S S S S S S S S S S S S S
|---------------------------------|-----------------------------------|
|---------------------------------|-----------------------------------|
|---------------------------------|-----------------------------------|
|---------------------------------|-----------------------------------|
|---------------------------------|-----------------------------------|
|-6-6-6-6-6-6-6-6-6-6-6-6-6-6-6-6-|-6-6-6-6-6-6-6-6-6-6-6-6-6-6-6-6---|


  S S S S S S S S S S S S S S S S   S S S S S S S S S S S S S S S S
|---------------------------------|-----------------------------------|
|---------------------------------|-----------------------------------|
|---------------------------------|-----------------------------------|
|---------------------------------|-----------------------------------|
|---------------------------------|-----------------------------------|
|-8-8-8-8-8-8-8-8-8-8-8-8-8-8-8-8-|-8-8-8-8-8-8-8-8-8-8-8-8-8-8-8-8---|


  S S S S S S S S S S S S S S S S   S S S S S S S S S S S S S S S S    4x
|---------------------------------|------------------------------------||
|---------------------------------|-----------------------------------o||
|---------------------------------|------------------------------------||
|---------------------------------|------------------------------------||
|---------------------------------|-----------------------------------o||
|-5-5-5-5-5-5-5-5-5-5-5-5-5-5-5-5-|-5-5-5-5-5-5-5-5-5-5-5-5-5-5-5-5----||


    S S S S S S S S S S S S S S S S  S S S S S S S S S S S S S S S S
||--------------------------------------------------------------------|
||o-------------------------------------------------------------------|
||--------------------------------------------------------------------|
||--------------------------------------------------------------------|
||o-2-2-2-2-2-2-2-2-2-2-2-2-2-2-2-2--3-3-3-3-3-3-3-3-3-3-3-3-3-3-3-3--|
||--------------------------------------------------------------------|


  S S S S S S S S S S S S S S S S  S S S S S S S S S S S S S S S S
|---------------------------------------------------------------------||
|--------------------------------------------------------------------o||
|---------------------------------------------------------------------||
|---------------------------------------------------------------------||
|-2-2-2-2-2-2-2-2-2-2-2-2-2-2-2-2------------------------------------o||
|----------------------------------1-1-1-1-1-1-1-1-1-1-1-1-1-1-1-1----||


  W   W   W    W    W   W   W   W
|---|---|---|-----|---|---|---|----|
|---|---|---|-----|---|---|---|----|
|-4-|-5-|-7-|-10--|-4-|-5-|-4-|----|
|---|---|---|-----|---|---|---|-3--|
|-2-|-3-|-5-|--8--|-2-|-3-|-2-|----|
|---|---|---|-----|---|---|---|-1--|


    S S S S S S S S S S S S S S S S   S S S S S S S S S S S S S S S S
||----------------------------------|----------------------------------|
||o---------------------------------|----------------------------------|
||----------------------------------|----------------------------------|
||----------------------------------|----------------------------------|
||o---------------------------------|----------------------------------|
||--5-5-5-5-5-5-5-5-5-5-5-5-5-5-5-5-|-5-5-5-5-5-5-5-5-5-5-5-5-5-5-5-5--|


  S S S S S S S S S S S S S S S S   S S S S S S S S S S S S S S S S
|---------------------------------|-----------------------------------|
|---------------------------------|-----------------------------------|
|---------------------------------|-----------------------------------|
|---------------------------------|-----------------------------------|
|---------------------------------|-----------------------------------|
|-6-6-6-6-6-6-6-6-6-6-6-6-6-6-6-6-|-6-6-6-6-6-6-6-6-6-6-6-6-6-6-6-6---|


  S S S S S S S S S S S S S S S S   S S S S S S S S S S S S S S S S
|---------------------------------|-----------------------------------|
|---------------------------------|-----------------------------------|
|---------------------------------|-----------------------------------|
|---------------------------------|-----------------------------------|
|---------------------------------|-----------------------------------|
|-8-8-8-8-8-8-8-8-8-8-8-8-8-8-8-8-|-8-8-8-8-8-8-8-8-8-8-8-8-8-8-8-8---|


  S S S S S S S S S S S S S S S S   S S S S S S S S S S S S S S S S
|---------------------------------|------------------------------------||
|---------------------------------|-----------------------------------o||
|---------------------------------|------------------------------------||
|---------------------------------|------------------------------------||
|---------------------------------|-----------------------------------o||
|-5-5-5-5-5-5-5-5-5-5-5-5-5-5-5-5-|-5-5-5-5-5-5-5-5-5-5-5-5-5-5-5-5----||


  W                   +W
|------------------|---------*|
|------------------|---------*|
|------------------|---------*|
|-7----------------|--(7)----*|
|-7----------------|--(7)----*|
|-5----------------|--(5)----*|

--------------------------------------------------------------------------------
--------------------------------------------------------------------------------
--------------------------------------------------------------------------------

Band : The Berzerker
Song : Ignorance
Album : The Berzerker
Website : www.TheBerzerker.com

Gtr I (A D G C E A) 
Gtr II (A D G C E A) 


   
   4/4
    Gtr I
    S S S S S S S S S S S S S S S S   S S S S S S S S S S S S S S S S
||----------------------------------|---------------------------------|
||o---------------------------------|---------------------------------|
||----------------------------------|---------------------------------|
||----------------------------------|---------------------------------|
||o-4-4-4-4-4-4-4-4-5-5-5-5-5-5-5-5-|-4-4-4-4-4-4-4-4-5-5-5-5-5-5-5-5-|
||--2-2-2-2-2-2-2-2-2-2-2-2-2-2-2-2-|-2-2-2-2-2-2-2-2-2-2-2-2-2-2-2-2-|
|
|   Gtr II
|   S S S S S S S S S S S S S S S S   S S S S S S S S S S S S S S S S
||----------------------------------|---------------------------------|
||o---------------------------------|---------------------------------|
||--6-6-6-6-6-6-6-6-7-7-7-7-7-7-7-7-|-6-6-6-6-6-6-6-6-7-7-7-7-7-7-7-7-|
||--4-4-4-4-4-4-4-4-4-4-4-4-4-4-4-4-|-4-4-4-4-4-4-4-4-4-4-4-4-4-4-4-4-|
||o---------------------------------|---------------------------------|
||----------------------------------|---------------------------------|


  S S S S S S S S S S S S S S S S   S S S S S S S S S S S S S S S S   24x
|---------------------------------|------------------------------------||
|---------------------------------|-----------------------------------o||
|---------------------------------|------------------------------------||
|---------------------------------|------------------------------------||
|-6-6-6-6-6-6-6-6-7-7-7-7-7-7-7-7-|-6-6-6-6-6-6-6-6-7-7-7-7-7-7-7-7---o||
|-4-4-4-4-4-4-4-4-4-4-4-4-4-4-4-4-|-4-4-4-4-4-4-4-4-4-4-4-4-4-4-4-4----||
|
| S S S S S S S S S S S S S S S S   S S S S S S S S S S S S S S S S   24x
|---------------------------------|------------------------------------||
|---------------------------------|-----------------------------------o||
|-8-8-8-8-8-8-8-8-8-9-9-9-9-9-9-9-|-8-8-8-8-8-8-8-8-9-9-9-9-9-9-9-9----||
|-6-6-6-6-6-6-6-6-6-6-6-6-6-6-6-6-|-6-6-6-6-6-6-6-6-6-6-6-6-6-6-6-6----||
|---------------------------------|-----------------------------------o||
|---------------------------------|------------------------------------||




--------------------------------------------------------------------------------
--------------------------------------------------------------------------------
--------------------------------------------------------------------------------

Band : The Berzerker
Song : Humanity
Album : The Berzerker
Website : www.TheBerzerker.com


Gtr I (A D G C E A) 
Gtr II (A D G C E A)


 
   4/4
    Gtrs I, II
    \2                 \2                \2                   \2
    Q   E  E E E E E   Q   E  E E E Q    Q   E  E E E S S E   Q   E  E E E Q  4x
||-------------------|-----------------|--------------------|-----------------||
||o------------x-4---|------------x-4--|------------x-4-4---|------------x-4-o||
||--------11---x-3---|-------11---x-3--|-------11---x-3-3---|-------11---x-3--||
||--4----------x-4---|-4----------x-4--|-4----------x-4-4---|-4----------x-4--||
||o-4---x--9---------|-4---x--9--------|-4---x--9-----------|-4---x--9-------o||
||--2---x------------|-2---x-----------|-2---x--------------|-2---x-----------||


 6/4                           11/8
  E  E  E  Q.   E  E  E  Q  E   +E   E  E  E E E  E E E Q
|-----------------------------|----------------------------|
|-----------------------------|----------------------------|
|-----------------------------|----------------------------|
|-----------------------------|----------------------------|
|-4-------------4-----------9-|-(9)-----8----7-------------|
|----5--4--2-------5--4--2----|-----10-----9---7--4-4-5-2--|


 6/4
  S S S S S S S S S S S S S S S S S S S S S S  S S
|----------------------------------------------------|
|----------------------------------------------------|
|----------------------------------------------------|
|----------------------------------------------------|
|-4-4---------------------4-4------------------9-9---|
|-----5-5-4-4-2-2-2-2-2-2-----5-5-4-4-2-2-2-2--------|


 11/8
  S S  S  S S S S S S S S S S S S S S S S S S S
|--------------------------------------------------|
|--------------------------------------------------|
|--------------------------------------------------|
|--------------------------------------------------|
|-9-9-------8-8-----7-7----------------------------|
|-----10-10-----9-9-----7-7-4-4-4-4-5-5-2-2-2-2----|


 6/4                      11/8
  E E E Q.   E E E Q   E     +E   E  E  E E E E E E Q
|------------------------|-------------------------------|
|------------------------|-------------------------------|
|------------------------|-------------------------------|
|-6----------6--------11-|--(11)----10----9--------------|
|-4-7-6-4----4-7-6-4---9-|---(9)-12--8-11-7-9-6-6-7-4----|
|---5-4-2------5-4-2-----|-------10-----9---7-4-4-5-2----|


 6/4                      11/8                          4/4
                                                          \5_______________
  E E E q.  E E E Q   E    +E   E  E  E  E  E E E E Q    +W       +W
|------------------------|-----------------------------|--------|--------*|
|------------------------|-----------------------------|--------|--------*|
|------------------------|-----------------------------|--------|--------*|
|-6---------6------------|-----------------------------|--------|--------*|
|-4-7-6-4---4-7-6-4--[9]-|-(9)----[8]---[7]---6-6-7-4--|-(4)----|-(4)----*|
|---5-4-2-----5-4-2------|-----10-----9-----7-4-4-5-2--|-(2)----|-(2)----*|




--------------------------------------------------------------------------------


Duration Legend
---------------
W - whole; H - half; Q - quarter; E - 8th; S - 16th; T - 32nd; X - 64th; a - acciaccatura
+ - note tied to previous; . - note dotted; .. - note double dotted
Uncapitalized letters represent notes that are staccato (1/2 duration)
Irregular groupings are notated above the duration line
Duration letters will always appear directly above the note/fret number it represents the
duration for.  Duration letters with no fret number below them represent rests.  Multi-
bar rests are notated in the form Wxn, where n is the number of bars to rest for.  Low
melody durations appear below the staff

Tablature Legend
----------------
 h   - hammer-on
 p   - pull-off
 b   - bend
 pb  - pre-bend
 r   - bend release (if no number after the r, then release immediately)
 /\  - slide into or out of (from/to "nowhere")
 s   - legato slide
 S   - shift slide
 - natural harmonic
[n]  - artificial harmonic
n(n) - tapped harmonic
 ~   - vibrato
 tr  - trill
 T   - tap
 TP  - trem. picking
 PM  - palm muting
\n/  - tremolo bar dip; n = amount to dip
 \n  - tremolo bar down
 n/  - tremolo bar up
/n\  - tremolo bar inverted dip
 =   - hold bend; also acts as connecting device for hammers/pulls
 <> - volume swell (louder/softer)
 x   - on rhythm slash represents muted slash
 o   - on rhythm slash represents single note slash

Misc Legend
-----------
 |  - bar
||  - double bar
||o - repeat start
o|| - repeat end
*|  - double bar (ending)
 :  - bar (freetime)
 $  - Segno
 &  - Coda
Tempo markers -  = BPM(8/16=s8/s16), where s8 = swing 8ths, s16 = swing 16ths
Comments