Berzerker - No One Wins Chords & Tabs

 

No One Wins Chords & Tabs

Berzerker Chords & Tabs

Version: 1 Type: Bass Tab 0 ratings
1 star 2 stars 3 stars 4 stars 5 stars
comments

No One Wins Bass Tab

bass A tuned

Riff 1

E---------------------------------------|
C---------------------------------------|
G---997799101099779955774455------------|
D-77------------------------------------|
A---------------------------------------|
                                  

Riff 2   
----------------------------------------|
---------------99----77--55-------------|
---997799101099--1010--99--7799---------|
-77----------------------------1010-----|
----------------------------------------|

Riff 1 x 1

Riff 3   
--------------------------|
--------------------------|
--------------------------|
--------------------------|
-4-5---0-4-3---1-0--------|
[ Tab from: http://www.guitartabs.cc/tabs/b/berzerker/no_one_wins_btab.html ]
Riff 4 (play 4 times) 
---------------------------------|
---------------------------------|
-2222223355332211----------------|
-----------------2--2-2-3-2-3----|
---------------------------------|


Riff 5 (play 4 times) 
----------------------------------------|
----------------------------------------|
-\44--44--33--33--22--22--11--11--------|
----55--55--44--44--33--33--22--22------|
----------------------------------------|

Riff 4 x 1

Riff 6   
---------------------------------------------------------------------|
---------------------------------------------------------------------|
--------------------------------------------------7--9---------------|
-4----------5------------5-6-----------------------------------------|
---2222-222----2222-2222-----22222222222222222222------2222-2222-----|
   .... ....   .... ....     ....................      .... ....

Riff 2 x 1
Riff 1 x 1
Riff 2 x 1
Riff 3 x 1
Riff 4 x 1
Riff 5 x 1
Comments