Berzerker - Massacre Chords & Tabs

 

Massacre Chords & Tabs

Berzerker Chords & Tabs

Version: 1 Type: Bass Tab 0 ratings
1 star 2 stars 3 stars 4 stars 5 stars
comments

Massacre Bass Tab

   
    Q=140
   4/4
   A tuned
    S S S S Q  S S S S Q    e e Q  e e Q
||o-----------------------|---------------|
||------------------------|---------------|
||------------------------|---------------|
||o---------3----------4--|-----3------3--|
||--5-4-3-4----6-5-4-5----|-4-3----4-3----|


  e e E E e e E E   S S S S Q  S S S S S S E   4x
|-----------------|---------------------------o||
|-----------------|----------------------------||
|-----------------|----------------------------||
|-----3S4-----4S5-|---------3--------------3--o||
|-4-3-----5-4-----|-5-4-3-4----5-4-3-4-3-3-----||


  Q  S S Q  E S S E    Q   S  S Q  E  S  S E
|-------------------|------------------------|
|-------------------|------------------------|
|-------------------|------------------------|
|-4------3--3-----5-|--8--------7--7-------9-|
|----5-4------4-4---|------9--8-------8--8---|


  Q  S S Q  E S S E    E  a   E  E Q  E  S  S E
|-------------------|----------------------------|
|-------------------|----------------------------|
|-------------------|----------------------------|
|-4------3--3-----5-|--8--8-/10--8-7--7----------|
|----5-4------4-4---|--------------------8--8-7--|


  Q  S S Q  E S S E    Q   S  S Q  E  S  S E
|-------------------|------------------------|
|-------------------|------------------------|
|-------------------|------------------------|
|-4------3--3-----5-|--8--------7--7---------|
|----5-4------4-4---|------9--8-------8--8-7-|


                     2/4
  Q  S S Q  E S S E     E  A   E  E   E
|-------------------|---------------------|
|-------------------|---------------------|
|-------------------|---------------------|
|-4------3--3-----6-|---8--8-/10--8---7---|
|----5-4------4-4---|---------------------|


   4/4
    S S E S S Q  E  S S E   S S Q  e S S E S S E    Q  S S E S S  E Q   3x
||o-----------------------|-----------------------|--------------------o||
||------------------------|-----------------------|---------------------||
||------------------------|-----------------------|---------------------||
||o-----------------------|-----------------------|-----------------7--o||
||--5-4---4-3-------8-7---|-7-6----6-5-4---4-3----|----8-7---7-6--------||


  S S E S S Q  E  S S E   S S Q  e S S E Q          W
|-----------------------|-------------------|------------|
|-----------------------|-------------------|------------|
|-----------------------|-------------------|------------|
|-----------------------|-------------------|------------|
|-5-4---4-3-------8-7---|-7-6----6-5-4------|------------|

(must be downpicked)

    S S S S E S S S S E  S S  S S   S S S S  E S S S S E  S S E    16x
||o-------------------------------|--------------------------------o||
||--------------------------------|---------------------------------||
||--------------------------------|---------------------------------||
||o---------4-----5---3-----------|----------8-----9---7------8----o||
||--5-4-3-----4-4--------4-3--3-4-|-9-8-7-8----8-8--------7-7-------||

[ Tab from: http://www.guitartabs.cc/tabs/b/berzerker/massacre_btab.html ]
  4/4
    S S E S S Q  E  S S E   S S Q  e S S E S S E    Q  S S E S S  E Q   3x
||o-----------------------|-----------------------|--------------------o||
||------------------------|-----------------------|---------------------||
||------------------------|-----------------------|---------------------||
||o-----------------------|-----------------------|-----------------7--o||
||--5-4---4-3-------8-7---|-7-6----6-5-4---4-3----|----8-7---7-6--------||


     S S S S E S S S S E  S S  S S   S S S S  E S S S S E  S S E    16x
||o-------------------------------|--------------------------------o||
||--------------------------------|---------------------------------||
||--------------------------------|---------------------------------||
||o---------4-----5---3-----------|----------8-----9---7------8----o||
||--5-4-3-----4-4--------4-3--3-4-|-9-8-7-8----8-8--------7-7-------||


    S S S S Q  S S S S Q    e e Q  e e Q
||o-----------------------|---------------|
||------------------------|---------------|
||------------------------|---------------|
||o---------3----------4--|------------3--|
||--5-4-3-4----6-5-4-5----|-4-3-3--4-3----|


  e e E E e e E E   S S S S Q  S S S S S S E   4x
|-----------------|---------------------------o||
|-----------------|----------------------------||
|-----------------|----------------------------||
|-----3S4-----4S5-|---------3--------------3--o||
|-4-3-----5-4-----|-5-4-3-4----5-4-3-4-3-3-----||



    S S S S E E. S E. S E  8x     E E  E E E  E E E   E E  E E E  E E E
||o-----------------------o||-||o-------------------|-------------------|
||-------------------------||-||--------------------|-------------------|
||--5-4-2-4-5--------------||-||--------------------|-------------------|
||o-----------5----5----5-o||-||o---9-12---7-11-7---|---8-11---6-10-6---|
||-------------------------||-||--9------9--------9-|-8------8--------8-|


  E E  E E E  E E E   E E  E E E  E  S  S  E  3x
|-------------------|------------------------o||
|-------------------|-------------------------||
|-------------------|-------------------------||
|---9-12---7-11-7---|---8-11---6-10-10S12S10-o||
|-9------9--------9-|-8------8----------------||


  S S S S  S  S S S S S  S  S S S S S
|-------------------------------------|
|-------------------------------------|
|-------------------------------------|
|-----9-9-12-12-----7-7-11-11-7-7-----|
|-9-9-----------9-9---------------9-9-|


  S S S S  S  S S S S S  S  S S S S S   S S S S  S  S S S S S  S  S S S S S
|-------------------------------------|-------------------------------------|
|-------------------------------------|-------------------------------------|
|-------------------------------------|-------------------------------------|
|-----8-8-11-11-----6-6-10-10-6-6-----|-----9-9-12-12-----7-7-11-11-7-7-----|
|-8-8-----------8-8---------------8-8-|-9-9-----------9-9---------------9-9-|


  S S S S  S  S S S S S  S  S  S  S  S  S
|-----------------------------------------*|
|-----------------------------------------*|
|-----------------------------------------*|
|-----8-8-11-11-----6-6-10-10-10-12-10-10-*|
|-8-8-----------8-8-----------------------*|
Comments