Berzerker - Disregard Chords & Tabs

 

Disregard Chords & Tabs

Berzerker Chords & Tabs

Version: 1 Type: Tab 0 ratings
1 star 2 stars 3 stars 4 stars 5 stars
comments

Disregard Tab

THE BERZERKER - DISREGARD
Genre: Grindcore/Industrial
Taken from the album 'Dissimulate' (2002)
Written by: The Berzerker 2002

Tabbed by Andrew Collyer
Any questions, comments, feedback, corrections etc. Please mail to
the_hauntedcrown@hotmail.com.
Ah, Melbourne's industrial grind masters the Berzerker. I will tab some more
songs later. Please keep in mind, their drum-heavy production makes the guitar
work hard to hear a lot of the time, but I have done my best so keep reading...

. - palm mute
TUNING: A tuning (ADGCEA)

Riff 1
A-----------------------------------|
E-----------------------------------|
C-----------------------------------|
G-----------------------------------|
D-3333333333336636 (play 8 times)---|
A-----------------------------------|


Riff 2
---------------------------------|
---------------------------------|
---------------------------------|
------------------(play 3 times)-|
---5-4-----7-6-------------------|
-4-----5-4-----5-----------------|

[ Tab from: http://www.guitartabs.cc/tabs/b/berzerker/disregard_tab.html ]
Riff 2 variation
Fourth time playing riff 2, play this instead:
-------------------|
-------------------|
-------------------|
-----------9-8-----|
---5-4---6-7-6-7---|
-4-----5-4-----5---|
         . . . .


Riff 3 Lyrics start "I have often thought to myself..."
---------------------------------------|
---------------------------------------|
---------------------------------------|
---------------------------------------|
---5544----7766------------------------|(play this 8 times)
-44----5544----55----------------------|

Riff 1 x1

Riff 4 (play this twice)
--------------------------------------------------------------|
--------------------------------------------------------------|
--------------------------------------------------------------|
---5-------5-------5-------5-------5-------5------------------|
-----653-----653-----653-----653-----653-----653-5---5-5-5555-|
-3-------3-------3-------3-------3-------3-------3---3-3-3333-|
 . . ... . . ... . . ... . . ... . . ... . . ...
Riff 2 x1
Riff 2 var x1
Riff 3 x 
Comments