Berzerker - Cannibal Rights Chords & Tabs

 

Cannibal Rights Chords & Tabs

Berzerker Chords & Tabs

Version: 1 Type: Bass Tab 0 ratings
1 star 2 stars 3 stars 4 stars 5 stars
comments

Cannibal Rights Bass Tab

   
Cannibal Rights bass tab
tuned (A E D C G A)

  W          +W           H    +E  E E E   +E  E E Q  E E E
|----------|------------|----------------|------------------|
|----------|------------|----------------|------------------|
|----------|------------|----------------|------------------|
|-4--------|-(4)--------|--------------4-|-(4)-----6----6---|
|----------|------------|-5----(5)-0-5---|-----0-5----5---5-|


 
  W          +H     H      H    +E  E E E   +E  E E Q  E E E
|----------|-------------|----------------|-------------------|
|----------|-------------|----------------|-------------------|
|----------|-------------|----------------|-------------------|
|-4--------|-(4)----7----|--------------4-|-(4)-----6----6----|
|----------|-------------|-5----(5)-0-5---|-----0-5----5---5--|


  H    +E  E E E   +E  E E Q  E E E   
|----------------|------------------|
|----------------|------------------|
|----------------|------------------|
|-7----(7)-----6-|-(6)-----4----4---|
|----------0-5---|-----0-5----5---5-|



  
  W          +H     H      W              W
|----------|-------------|----------|----------|
|----------|-------------|----------|----------|
|----------|-------------|----------|----------|
|-4--------|-(4)----7----|----------|----------|
|----------|-------------|-5--------|----------|


    S S S S S S S S S S S S S S S S   S S S S S S S S S S S S S S S S
||----------------------------------|----------------------------------|
||o-6-6-6-6-6-6-6-6-6-6-6-6-6-6-6-6-|-8-8-8-8-8-8-8-8-9-9-9-9-9-9-9-9--|
||----------------------------------|----------------------------------|
||o---------------------------------|----------------------------------|
||----------------------------------|----------------------------------|


  S S S S S S S S S S S S S S S S   S S S S S S S S S S S S S S S S
|---------------------------------|------------------------------------||
|---------------------------------|-----------------------------------o||
|-7-7-7-7-7-7-7-7-7-7-7-7-7-7-7-7-|-7-7-7-7-7-7-7-7-7-7-7-7-7-7-7-7----||
|---------------------------------|-----------------------------------o||
|---------------------------------|------------------------------------||


    S S S S S S S S S S S S S S S S   S S S S S S S S S S S S S S S S
||----------------------------------|----------------------------------|
||o---------------------------------|----------------------------------|
||----------------------------------|----------------------------------|
||o-4-4-4-4-4-4-4-4-4-4-4-4-4-4-4-4-|-6-6-6-6-6-6-6-6-7-7-7-7-7-7-7-7--|
||----------------------------------|----------------------------------|


  S S S S S S S S S S S S S S S S   S S S S S S S S S S S S S S S S
|---------------------------------|------------------------------------||
|---------------------------------|-----------------------------------o||
|---------------------------------|------------------------------------||
|---------------------------------|-----------------------------------o||
|-5-5-5-5-5-5-5-5-5-5-5-5-5-5-5-5-|-5-5-5-5-5-5-5-5-5-5-5-5-5-5-5-5----||


  W          +W           W           +W
|----------|------------|-----------|--------|
|----------|------------|-----------|--------|
|----------|------------|-----------|--------|
|-4--------|-(4)--------|-----------|--------|
|----------|------------|-5---------|-(5)----|


  W          +H     H      W          +W
|----------|-------------|----------|--------|
|----------|-------------|----------|--------|
|----------|-------------|----------|--------|
|-4--------|-(4)----7----|----------|--------|
|----------|-------------|-5--------|-(5)----|

	   x5
|----------|
|o--------o| 
|----------| 
|o--------o|
|----------|

   H                      H
|-----------------------------------------|
|-----------------------------------------|
|-----------------------------------------|
|-----------------------------------------|
|--8----------------------7---------------|


  
   Q          Q        Q          Q
|-------------------------------------------|
|-------------------------------------------|
|-------------------------------------------|
|-------------7-----------------------------|
|--8-------------------8----------7---------|


   S  S  S  S S S S S S S S S S S S S
  Q          Q       H
|-------------------------------------|
|-------------------------------------|
|-------------------------------------|
|-------------------------------------|
|--8----------5-------7---------------|



   Q          E   E    Q          Q
|-------------------------------------------|
|-------------------------------------------|
|-------------------------------------------|
|-----------------7-------------------------|
|--8----------7--------8----------7---------|


[ Tab from: http://www.guitartabs.cc/tabs/b/berzerker/cannibal_rights_btab.html ]
   S  S  S  S  S  S  S  S S S S S S S S S
|-----------------------------------------|
|-----------------------------------------|
|-----------------------------------------|
|-----------------------------------------|
|--8--8--8--8--8--8--8--8-7-7-7-7-7-7-7-7-|



   S  S  S  S S S S S  S  S  S  S S S S S
|-------------------------------------------|
|-------------------------------------------|
|-------------------------------------------|
|-------------7-7-7-7-----------------------|
|--8--8--8--8----------8--8--8--8-7-7-7-7---|



   S  S  S  S S S S S S S S S S S S S
|-------------------------------------|
|-------------------------------------|
|-------------------------------------|
|-------------------------------------|
|--8--8--8--8-5-5-5-5-7-7-7-7-7-7-7-7-|



   S  S  S  S S S S S  S  S  S  S S S S S
|-------------------------------------------|
|-------------------------------------------|
|-------------------------------------------|
|-----------------7-7-----------------------|
|--8--8--8--8-7-7------8--8--8--8-7-7-7-7---|


   S  S  S  S  S  S  S  S S S S S S S S S

|-----------------------------------------|
|-----------------------------------------|
|-----------------------------------------|
|-----------------------------------------|
|--3--3--3--3--3--3--3--3-2-2-2-2-2-2-2-2-|


   S  S  S  S S S S S  S  S  S  S S S S S
|-------------------------------------------|
|-------------------------------------------|
|-------------------------------------------|
|-------------2-2-2-2-----------------------|
|--3--3--3--3----------3--3--3--3-2-2-2-2---|


   S  S  S  S S S S S S S S S S S S S
|-------------------------------------|
|-------------------------------------|
|-------------------------------------|
|-------------------------------------|
|--3--3--3--3-0-0-0-0-2-2-2-2-2-2-2-2-|


   S  S  S  S S S S S  S  S  S  S S S S S
|-------------------------------------------|
|-------------------------------------------|
|-------------------------------------------|
|-----------------2-2-----------------------|
|--3--3--3--3-2-2------3--3--3--3-2-2-2-2---|



  
    S S S S S S S S S S S S S S S S   S S S S S S S S S S S S S S S S

||----------------------------------|----------------------------------|
||o-6-6-6-6-6-6-6-6-6-6-6-6-6-6-6-6-|-8-8-8-8-8-8-8-8-9-9-9-9-9-9-9-9--|
||----------------------------------|----------------------------------|
||o---------------------------------|----------------------------------|
||----------------------------------|----------------------------------|


                                    1.
  S S S S S S S S S S S S S S S S   S S S S S S S S S S S S S S S S
|---------------------------------|------------------------------------||
|---------------------------------|-----------------------------------o||
|-7-7-7-7-7-7-7-7-7-7-7-7-7-7-7-7-|-7-7-7-7-7-7-7-7-7-7-7-7-7-7-7-7----||
|---------------------------------|-----------------------------------o||
|---------------------------------|------------------------------------||


  2.        
  E E H.          S S S S S S S S S S S S S S S S
|-------------||----------------------------------|
|-------------||o-6-6-6-6-6-6-6-6-6-6-6-6-6-6-6-6-|
|-7-----------||----------------------------------|
|-------------||o---------------------------------|
|-------------||----------------------------------|


  S S S S S S S S S S S S S S S S
|-----------------------------------|
|-8-8-8-8-8-8-8-8-9-9-9-9-9-9-9-9---|
|-----------------------------------|
|-----------------------------------|
|-----------------------------------|


  S S S S S S S S S S S S S S S S   S S S S S S S S S S S S S S S S
|---------------------------------|------------------------------------||
|---------------------------------|-----------------------------------o||
|-7-7-7-7-7-7-7-7-7-7-7-7-7-7-7-7-|-7-7-7-7-7-7-7-7-7-7-7-7-7-7-7-7----||
|---------------------------------|-----------------------------------o||
|---------------------------------|------------------------------------||


    S S S S S S S S S S S S S S S S   S S S S S S S S S S S S S S S S
||----------------------------------|----------------------------------|
||o---------------------------------|----------------------------------|
||----------------------------------|----------------------------------|
||o-4-4-4-4-4-4-4-4-4-4-4-4-4-4-4-4-|-6-6-6-6-6-6-6-6-7-7-7-7-7-7-7-7--|
||----------------------------------|----------------------------------|


  1.
  S S S S S S S S S S S S S S S S   S S S S S S S S S S S S S S S S
|---------------------------------|------------------------------------||
|---------------------------------|-----------------------------------o||
|---------------------------------|------------------------------------||
|---------------------------------|-----------------------------------o||
|-5-5-5-5-5-5-5-5-5-5-5-5-5-5-5-5-|-5-5-5-5-5-5-5-5-5-5-5-5-5-5-5-5----||


  2.
  S S S S S S S S S S S S S S S S
|---------------------------------|
|---------------------------------|
|---------------------------------|
|-9-9-9-9-9-9-9-9-9-9-9-9-9-9-9-9-|
|---------------------------------|


   S  S  S  S  S  S  S  S  S  S  S  S  S  S  S  S
|---------------------------------------------------|
|---------------------------------------------------|
|---------------------------------------------------|
|-12-12-12-12-12-12-12-12-12-12-12-12-12-12-12-12---|
|---------------------------------------------------|


   E Q H.
|----------*|----|
|----------*|----|
|----------*|----|
|-12-------*|----|
|----------*|----|
Comments