Bert Jansch - Rosemary Lane Chords & Tabs

 

Rosemary Lane Chords & Tabs

Bert Jansch Chords & Tabs

Version: 2 Type: Tab 0 ratings
1 star 2 stars 3 stars 4 stars 5 stars
comments

Rosemary Lane Tab

Tabbed by Jamie Phillips (jamiephillips22@hotmail.com)

Artist: Bert Jansch
Track title: Rosemary Lane
Album: Rosemary Lane
Tuning: EADGBE


This is a really easy tune to play and sing and it's a beautiful one. As usual, Bert shows
a little variation between verses (not much) so work with the recording to get this and the
exact structure of the song. Hope you enjoy it!

Rhythm: 3/4

     *     *     *        *     *     *     x4 *     *     *
E||--------0-----------|--------3-----2--0--|--------0-----------|
B||--------------------|--------3-----------|--------------------|
G||-----2-----2-----2--|-----0-----0--------|-----2-----2-----2--|
D||--------------2-----|-/5-----------4-----|--------------2-----|
A||--0-----------------|--------------------|--0-----------------|
E||--------------------|--------------------|--------------------|


  *     *     *        *     *     *        *     *     * 
E--------0-----------|--------3-----------|--------------------|
B--------5-----------|--------0-----------|--------0-----------|
G-----2-----2-----0--|-----4-----4--------|--------0-----------|
D--------------5-----|--2--------------0--|-----0-----0-----0--|
A--0-----------------|--------------5-----|--------------2-----|
E--------------------|--------------------|--3-----------------|

[ Tab from: http://www.guitartabs.cc/tabs/b/bert_jansch/rosemary_lane_tab_ver_2.html ]
  *     *     *        *     *     *        *     *     *     
E--------0-----------|--------3-----2--0--|--------0-----------|
B--------------------|--------3-----------|--------------------|
G-----2-----2--------|-----0-----0--------|-----2-----2-----2--|
D--------------2-h4--|-/5-----------4-----|--------------2-----|
A--0-----------------|--------------------|--0-----------------|
E--------------------|--------------------|--------------------|


  *     *     *          *     *     *        *     *     * 
E----------------------|--------0-----------|--------3-----2--0--|
B--------0-------------|--------------------|--------3-----------|
G--------0-------------|-----2-----2--------|-----0-----0--------|
D-----0-----0----------|--------------2-h4--|-/5-----------4-----|
A--------------2h0h2h0-|--0-----------------|--------------------|
E--3-------------------|--------------------|--------------------|


  *     *     *        *     *     *        *     *     *              
E--------0-----------|--------------------|--------------------|
B--------------------|--------0-----------|--------3-----------|
G-----2-----2-----2--|--------0-----------|--------4-----------|
D--------------2-----|-----0-----0-----0--|-----4-----4-----4--|
A--0-----------------|--------------------|--2-----------2-----|
E--------------------|--3-----------3-----|--------------------|


  *     *     *        *     *     *        *     *     *     
E--------0-----------|--------3-----------|--------------------|----||
B--------5-----------|--------0-----------|--------0-----------|----||
G-----2-----2-----0--|-----4-----4--------|--------0-----------|----||
D--------------5-----|--2--------------0--|-----0-----0-----0--|----||
A--0-----------------|--------------5-----|--------------2-----|----||
E--------------------|--------------------|--3-----------------|----||

TAB guide: / = slide from below
           h = hammer on/pull off
Comments