Berryman Kyle - Classical No Chords & Tabs

 

Classical No Chords & Tabs

Berryman Kyle Chords & Tabs

Version: 1 Type: Tab 0 ratings
1 star 2 stars 3 stars 4 stars 5 stars
comments

Classical No Tab

KYLE BERRYMAN
“CLASSICAL #2”



E-------------------------------------------------------------
B-------------------------0h1------3-----1-0h1------3-----1--
G--------------------------0------0---------0------0------
D----------------------------------------------------------
A--------------------------3-----3------3---3-----3------3----
E------------------------------------------------------------

E----------------------------------------------------------------
B-0h3-----5-----3-0h3-----5-----3-0h1-----3-----1-0h1-----3-----1
G-----4-----4---------4-----4----------0-----0---------0-----0---
D-4-----4-----4---4-----4-----4----------------------------------
A---------------------------------3-----3-----3---3-----3-----3--
E----------------------------------------------------------------

E----------------------------------------------------------------
B-0H3-----5-----3-0H3-----5-----3-OH1-----3-1-3-------5-3--------
G-----4-----4---------4-----4---------0-----------4--------------
D-4-----4-----4---4-----4-----4---------------0h4---4------------
A---------------------------------3-----3------------------------
E----------------------------------------------------------------

E------------5-----------------5---------------------------------
B-------5------5---------5-------5-------5-----3-----5-----3-----
G-----5---5------5-----5---5-------5---2---2-----2-----2-----2---
D---7-------7--------7-------7-------3-------3-----3-----3-----3-
A-7----------------7---------------------------------------------
E----------------------------------------------------------------

E----------------------------------------------------------------
B-3-----2-----3-----2-----3P2P0-0h1-----3-----1-0h1-----3-----1--
G---2-----2-----2-----2-------------0-----0---------0-----0------
D-----2-----2-----2-----2----------------------------------------
A-------------------------------3-----3-----3---3-----3-----3----
E----------------------------------------------------------------
[ Tab from: http://www.guitartabs.cc/tabs/b/berryman_kyle/classical_no_tab.html ]
E----------------------------------------------------------------
B-0h3-----5-----3-0H3-----5-----3-0H1-----3-----1-0H1-----3-----1
G-----4-----4---------4-----4---------0-----0---------0-----0----
D-4-----4-----4---4-----4-----4----------------------------------
A---------------------------------3-----3-----3---3-----3-----3--
E----------------------------------------------------------------






E----------------------------------
B-0H3-----5-----3-0H3-----5-----3--
G-----4-----4---------4-----4------
D-4-----4-----4---4-----4-----4----
A----------------------------------
E----------------------------------

E-------------------------------------------------2-0-----0-0----
B-0H1-----3-1-0H3-----5-3-5-------3-------2-------3---3---1---0--
G-----0-----------2---------3---3---4---4---2---2-2-----2-2-----2
D-------------2-----2---------4-------4-------2---0-------2------
A-3-----3-------------------------2-------0-------0-------0------
E-------------------------2--------------------------------------

E-0-0-----3-3-----2-0-----0-0-----0-0-----3----------------------
B-1---0---3---3---3---3---1---0---1---0---3----------------
G-0-----0-0-----0-2-----2-2-----2-0-----0-0-------------------
D-2-------0-------0-------2-------2-------0-------------------
A-3-------2-------0-------0-------3-------2-------------------
E---------3-------------------------------3----------------------

E----------------------------------------------------------------
B-3P2P0-0h1-----3-----1-0h1-----3-----1-0h3-----5-----3-0H3------
G-----------0-----0---------0-----0---------4-----4---------4----
D---------------------------------------4-----4-----4---4-----4--
A-------3-----3-----3---3-----3-----3----------------------------
E----------------------------------------------------------------

E----------------------------------------------------------------
B-0h1-----3-----1-0h1-----3-----1-0h3-----5-----3-0h3-----5-----3
G-----0-----0---------0-----0---------4-----4---------4-----4----
D---------------------------------4-----4-----4---4-----4-----4--
A-3-----3-----3---3-----3-----3----------------------------------
E----------------------------------------------------------------

E-------------------------------------------------
B-0h1------3-1-0h3-----5-3---0-------------
G-----0------------4---------------------------
D--------------4-----4-------0-------------
A-3-----3-----------------------------------------
E-------------------------------------------------






Comments