Berry Chuck - Rock And Roll Music Chords & Tabs

 

Rock And Roll Music Chords & Tabs

Berry Chuck Chords & Tabs

Version: 1 Type: Tab 1 rating
1 star 2 stars 3 stars 4 stars 5 stars
comments

Rock And Roll Music Tab

   
Chuck Berry - Rock And Roll Music
Tabbed by: SpRiNgWaFfLe

  Melody (part that's sung)                *
e-15-15-15-15-15-15-15-15-14----------14---15-15-14-------------
b----------------------------17-14-17---------------17-14-17-17-
g---------------------------------------------------------------
d---------------------------------------------------------------
a---------------------------------------------------------------
e---------------------------------------------------------------

e-15-15-15-15-14----------14---15-15-14---------------15-15-14-15-15-14-------------
b----------------17-15-17---------------17-14-17-17---------------------17-15-17-17-
g-----------------------------------------------------------------------------------
d-----------------------------------------------------------------------------------
a-----------------------------------------------------------------------------------
e-----------------------------------------------------------------------------------

e-------------------------------------------
b-17-17-15-15-14---------17-17-15--14-------
g----------------16-14----------------16-14-
d-------------------------------------------
a-------------------------------------------
e-------------------------------------------

e---------------------------------------------------------------
b-17-17-17-17-14-15-14-14---------15-15-15-15-15-15-15-15-14-14-
g-------------------------16-16---------------------------------
d---------------------------------------------------------------
a---------------------------------------------------------------
e---------------------------------------------------------------

e--------------------------------14-14----14----14----14-------
b-17-17-17-17-17-17-17-17-15-15--------17----17----17----17-17-
g--------------------------------------------------------------
d--------------------------------------------------------------
a--------------------------------------------------------------
e--------------------------------------------------------------
[ Tab from: http://www.guitartabs.cc/tabs/b/berry_chuck/rock_and_roll_music_tab.html ]
e-15-15-15-15-14-14-14-14-------------14-
b-------------------------17-17-14-17----
g----------------------------------------
d---------------------------------------- go to the *
a---------------------------------------- and repeat
e----------------------------------------

 Rhythm
  A                 D                 E                 E2                A2
e-----------------|-----------------|-----------------|-----------------|-----------------|
b-----------------|-----------------|-----------------|-----------------|-----------------|
g-----------------|-2-2-4-2-2-2-4-2-|-----------------|-----------------|-----------------|
d-2-2-4-2-2-2-4-2-|-0-0-0-0-0-0-0-0-|-----------------|-----------------|-----------------|
a-0-0-0-0-0-0-0-0-|-----------------|-2-2-4-2-2-2-4-2-|-2-2-2-2-2-2-2-2-|-----------------|
e-----------------|-----------------|-0-0-0-0-0-0-0-0-|-0-0-0-0-0-0-0-0-|-----------------|

g-----------------|---------2-2---2-|-----1-1-4-4-1-4-|-----------------|-----------------|
d---------2-2-4-2-|-0-0-4-4-----4---|-2-2-------------|-2-2-2-2-2-2-2-2-|-----------------|
a-0-0-4-4---------|-----------------|-----------------|-----------------|-0-0-0-0-0-0-0-0-|
e-----------------|-----------------|-----------------|-----------------|-----------------|

Guitar  Bass
A  x4   A  x4
D  x2   D  x2
A  x2   A  x2
E  x2   E  x2
E2 x1   E2 x1
A  x1   A2 x1
E2 x1   E2 x1

 Bridge
           x2           x2           x2
e------------|------------|------------|----------------
b------------|------------|------------|----------------
g------------|------------|----------2-|------1-1-4----- same for bass
d------------|----------2-|-0--0-4-4---|-2--2-------2--- go back to main
a----------2-|-0--0-4-4---|------------|---------------- rhythm
e-0--0-4-4---|------------|------------|----------------

I think the other tab is in D. The midi I tabbed 
this from was in A. I don't know which the actual song
is in. If you have any questions send them to:
springwaffle@comcast.net
Comments