Berry Chuck - Johnny B Goode Chords & Tabs

 

Johnny B Goode Chords & Tabs

Berry Chuck Chords & Tabs

Version: 1 Type: Tab 2 ratings
1 star 2 stars 3 stars 4 stars 5 stars
comments

Johnny B Goode Tab

Title: Johnny b goode
Artist: Chuck Berry

Tabbed: Jon Zegar (email: wkgnpimp15@hotmail.com


Riff 1

      [3x]
|---------5-5-5--|-5----------------|------------------|-----------------------|
|----5-7--5-5-5--|-5-6--7-5---------|------------------|-----5-7--5------------|
|--6-------------|-----------5-6----|------------------|-5-6--------6-4-2------|
|----------------|---------------7-5|--7-7-7-7-7-7-7-7-|-------------------4-2-|
|----------------|------------------|--7-7-7-7-7-7-7-7-|-----------------------|
|----------------|------------------|------------------|-----------------------|

[ Tab from: http://www.guitartabs.cc/tabs/b/berry_chuck/johnny_b_goode_tab.html ]
|---------------|---------------|---------------|---------------|
|-----5----5----|-5----5----5---|--5------5-----|-5-----5-----5-|
|--7----7-----7-|---7----7----7-|-----7-----7---|----7-----7----|
|---------------|---------------|---------------|---------------|
|---------------|---------------|---------------|---------------|
|---------------|---------------|---------------|---------------|


|-----5--------7-5-|---------------5----|-----------------|---------------|
|--5----6-7-5------|-6-7-5-------5----6-|-7-5---5---5-----|---------------|
|------------------|-------7-5-6--------|-----7---7---7-5-|---------------|
|------------------|--------------------|-----------------|--7-5----------|
|------------------|--------------------|-----------------|----------7----|
|------------------|--------------------|-----------------|-------7--7----|


Great Song! listen to the song for the right timing and youll get the hang of it.. 

Comments