Berry Chuck - Back In The Usa Chords & Tabs

 

Back In The Usa Chords & Tabs

Berry Chuck Chords & Tabs

Version: 1 Type: Tab 0 ratings
1 star 2 stars 3 stars 4 stars 5 stars
comments

Back In The Usa Tab

   
BACK IN THE USA  

by Chuck Berry

Transcribed by: Küpfer



              D
e|----------|-10-10-10-10-10-10-10-10-|-10----------------------|
B|----10-12-|-10-10-10-10-10-10-10-10-|-10-13-12-10-10----------|
G|-11-------|-------------------------|----13-12-10-11----------|
D|----------|-------------------------|----------------12-10----|
A|----------|-------------------------|----------------------12-|
E|----------|-------------------------|-------------------------|


e|------------------------|----------------------|
B|------------------------|---s-----s---s--------|
G|------------------------|-11\9---9\7-7\5-5-----|
D|-12-12-12-12-12-12-12---|-12\10-10\9-9\7-7-----|
A|-12-12-12-12-12-12-12---|----------------------|
E|------------------------|----------------------|

G x 2 bars
D x 2 bars
A x 2 bars
D x 2 bars



e|----10-10-10-10-------------|-10-10-10-10-10-------------|
B|----10-10-10-10-12-10-------|-10-10-10-10-10-12-10-------|
G|----------------12-10h11-12-|----------------12-10h11-12-|
D|----------------------------|----------------------------|
A|----------------------------|----------------------------|
E|----------------------------|----------------------------|

[ Tab from: http://www.guitartabs.cc/tabs/b/berry_chuck/back_in_the_usa_tab.html ]
e|-10---------10------10-|------10---10------12b(13)|
B|-10---------10------10-|------10---10---10-12b(13)|
G|-----------------------|--------------------------|
D|------12---------12----|---12---------------------|
A|-----------------------|--------------------------|
E|-----------------------|--------------------------|

   G
e|----10-12-10----------|-------------------------------------------|
B|----10-12-10-10-12-10-|-12b(13)(12)-10-12b(13)(12)-10-12b(13)(12)-|
G|----------------12-10-|-12b(13)(12)-10-12b(13)(12)-10-12b(13)(12)-|
D|----------------------|-------------------------------------------|
A|----------------------|-------------------------------------------|
E|----------------------|-------------------------------------------|

   D
e|--------------------------|-------------------------------|
B|-10-12b(13)(12)-10-12b(13)|(12)-10-12b(13)(12)-12-10---10-|
G|-10-12b(13)(12)-10-12b(13)|(12)-10-12b(13)(12)-12-10---11-|
D|--------------------------|-------------------------------|
A|--------------------------|-------------------------------|
E|--------------------------|-------------------------------|

   A
e|-----------------------|-------------------------|
B|-----------------------|-------------------------|
G|-10------10------10----|-10-12-13-12-10----10-12-|
D|-10---12-10---12-10-12-|-10-12-13-12-10-12-10-12-|
A|------12------12----12-|----------------12-------|
E|-----------------------|-------------------------|

   D
e|-10-10-10-10-------------|-----------------------||
B|-10-10-10-10-12-10-------|-----------------------||
G|-------------12-10h11-11-|-11--------------------||
D|----------------------12-|-12-10-12-12-----------||
A|-------------------------|-------12-12-----------||
E|-------------------------|-----------------------||
Comments