Berlin Project - Running In Circles Chords & Tabs

 

Running In Circles Chords & Tabs

Berlin Project Chords & Tabs

Version: 1 Type: Tab 0 ratings
1 star 2 stars 3 stars 4 stars 5 stars
comments

Running In Circles Tab

This is a new band from PA. They have the CD "the things we say" out now.
great band. i haven't got a chance to see them but the cd is awesome.

this is a local band and i want to get them out there.
I learned this by ear so it might be wrong but its a start.


|----------------------------------------------
|----------------------------------------------
|----------------------------------------------intro,distorted
|--1212121212121212----------------------------
|--1212121212121212----------------------------
|--1010101010101010----------------------------
pm ................
    4x             2x               2x
|-------------|-------------|-------------------
|-------------|-------------|-----12p10---------
|-------------|--9h11h12h14-|----------12-------pre-verse, distorted
|--14p12p11p9-|-------------|-------------------
|-------------|-------------|-------------------
|-------------|-------------|-------------------
[ Tab from: http://www.guitartabs.cc/tabs/b/berlin_project/running_in_circles_tab.html ]
|----------------------------------
|----------------------------------
|----------------------------------
|---5-5-5-55-----------------------verse over and over, clean
|---5-5-5-55-----------------------
|---3-3-3-33-----------------------

play intro, pre-verse than a a|d|g|3 3 1 power chord hope that made sense


chorus
|-------------------------
|-------------------------
|-------7--------9--------
|--5----7-x8-7---9-x8-----
|--5-x8-5----7x8-7--------
|--3---------5------------

verse
intro
pre-verse
chorus

interlude, outro

|-----------------------------
|-----------------------------
|------5---7---9--------------
|--5---5x8-7x8-9x8------------
|--5x8-3---5---7--------------
|--3--------------------------


|-----------------------------------------
|-----------------------------------------
|-----------------------------------------
|-2-2----------2-2----------2-2-----------
|-2-2---3p2p0--2-2--3p2p0---2-2-3p2p0-3\0-
|-0-0----------0-0----------0-0-----------


that's the whole song basically. check out the video for reference at
www.berlinproject.com

thanx
Comments