Berlin - The Metro Chords & Tabs

 

The Metro Chords & Tabs

Berlin Chords & Tabs

Version: 1 Type: Tab 0 ratings
1 star 2 stars 3 stars 4 stars 5 stars
comments

The Metro Tab

Berlin - The Metro

Tabbed By - Kelly Goosecock (killmatt138)

Main
[ Tab from: http://www.guitartabs.cc/tabs/b/berlin/the_metro_tab.html ]
-----------------------------------------------
-----------------------------------------------
-----------------------------------------------
-----11-11------------14-14-------12-12-11-11--
-9-9-9--9-11-11-12-12-12-12-14-14-10-10-9--9---
-7-7------9--9--10-10-------12-12--------------

Chorus

--------------------------
--------------------------
--------------------------
-9--11-11-14--9--11-11----
-7--9--11-12--7--9--11----
-7--9--9--12--7--9--9-----

Bridge

-5-----------------
--5-6--------------
-----7-9-5-7-4-----
--------------7----
-------------------
-------------------

Solo?
Comments