Berlin - Take My Breath Away Chords & Tabs

 

Take My Breath Away Chords & Tabs

Berlin Chords & Tabs

Version: 6 Type: Tab 0 ratings
1 star 2 stars 3 stars 4 stars 5 stars
comments

Take My Breath Away Tab

*Here's a little part of the song. i couldnt figure out the rest of it.
Im pretty sure it just keeps reapeating itself.


[ Tab from: http://www.guitartabs.cc/tabs/b/berlin/take_my_breath_away_tab_ver_6.html ]
e-------------------------------------------------
B-------------------------------------------------
G------------------------------------repeat this--
D--------------------------------------twice------
A-------------------------------------------------
E-0--2--5-7---5-0--4--0--2--0--4------------------



e-------------------------------------------------
B-------------------------------------------------
G-------------------------------------------------
D---------6-6-6-6-6--5-5-5-5-5--------------------
A-------------------6---------6-8-5-3------------
E-0-2-5-7----------------------------0-4-0-2-5-7-5
Comments