Beowulf - Mgb Chords & Tabs

 

Mgb Chords & Tabs

Beowulf Chords & Tabs

Version: 2 Type: Bass Tab 0 ratings
1 star 2 stars 3 stars 4 stars 5 stars
comments

Mgb Bass Tab

   
#----------------------------------PLEASE NOTE---------------------------------#
#This file is the author's own work and represents their interpretation of the #
#song. You may only use this file for private study, scholarship, or research. #
#------------------------------------------------------------------------------##

                                 MGB (Bassline)
                             As recorded by Beowulf

Words and Music by Von ignacio
Arranged by Von ignacio
Transcribed by Von ignacio

Gtr I (E A D G) - 'Ongchongke'

 Intro
  Q=83
 4/4
  Gtr I
  Wx8             W       Q.   Q Q E   W          H   Q. E
|------------||---------|------------|----------|----------|
|------------||o--------|------------|----------|----------|
|------------||o-/5-----|----/10-9-5-|----------|----------|
|------------||---------|------------|-3--------|-3------3-|


  W          H    Q.   E   W
|----------|-------------|---|
|----------|-------------|---|
|----------|-------------|---|
|-2--------|-2---------2-|-3-|


                 Pre-Chorus
  H    Q.   E  3x H    Q.   E   H    Q.   E   H    Q.   E   H    Q.   E
|--------------||-------------|-------------|-------------|-------------|
|-------------o||-------------|-------------|-------------|-------------|
|-------------o||-3---------3-|-2---------2-|-1---------1-|-0---------0-|
|-3---------3--||-------------|-------------|-------------|-------------|


 Chorus
  H    Q.   E   H    Q.   E   H    Q.   E   H    Q.   E
|-------------|-------------|-------------|-------------|
|-------------|-0---------0-|-------------|-0---------0-|
|-3---------3-|-------------|-3---------3-|-------------|
|-------------|-------------|-------------|-------------|


                                            ~
  H    Q.   E   H    Q.   E   H    Q.   E   W
|-------------|-------------|-------------|------|
|-------------|-0---------0-|-------------|-0----|
|-3---------3-|-------------|-3---------3-|------|
|-------------|-------------|-------------|------|


   2nd Verse
     W          Q.     Q  Q  E   W          H    Q.   E
||------------|----------------|----------|-------------|
||o-----------|----------------|----------|-------------|
||o-/5--------|------/10--9--5-|----------|-------------|
||------------|----------------|-3--------|-3---------3-|


  W          H    Q.   E   W          H    Q.   E
|----------|-------------|----------|--------------||
|----------|-------------|----------|-------------o||
|----------|-------------|----------|-------------o||
|-2--------|-2---------2-|-3--------|-3---------3--||


 Pre-Chorus
  H    Q.   E   H    Q.   E   H    Q.   E   H    Q.   E
|-------------|-------------|-------------|-------------|
|-------------|-------------|-------------|-------------|
|-3---------3-|-2---------2-|-1---------1-|-0---------0-|
|-------------|-------------|-------------|-------------|


 Chorus
  H    Q.   E   H    Q.   E   H    Q.   E   H    Q.   E
|-------------|-------------|-------------|-------------|
|-------------|-0---------0-|-------------|-0---------0-|
|-3---------3-|-------------|-3---------3-|-------------|
|-------------|-------------|-------------|-------------|


                                            ~
  H    Q.   E   H    Q.   E   H    Q.   E   W
|-------------|-------------|-------------|------|
|-------------|-0---------0-|-------------|-0----|
|-3---------3-|-------------|-3---------3-|------|
|-------------|-------------|-------------|------|

[ Tab from: http://www.guitartabs.cc/tabs/b/beowulf/mgb_btab_ver_2.html ]
   Solo
     W          Q.     Q  Q  E   W          H    Q.   E
||------------|----------------|----------|------------|
||o-----------|----------------|----------|------------|
||o-/5--------|------/10--9--5-|----------|------------|
||------------|----------------|-3--------|-3---------3|


  W          H    Q.   E   W          H    Q.   E
|----------|-------------|----------|--------------||
|----------|-------------|----------|-------------o||
|----------|-------------|----------|-------------o||
|-2--------|-2---------2-|-3--------|-3---------3--||


 Pre-chorus
   E E E E E E E E   E E E E E E E E   E E E E E E E E   E E E E E E E  E
|------------------|-----------------|-----------------|-------------------|
|------------------|-----------------|-----------------|-------------------|
|-/3-3-3-3-3-3-3-3-|-2-2-2-2-2-2-2-2-|-1-1-1-1-1-1-1-1-|-0-0-0-0-0-0-0-12\-|
|------------------|-----------------|-----------------|-------------------|


   Last Chorus
     E E E E E E E E    E  E  E  E  E   E E  E
||-------------------|-------------------------|
||o------------------|----------------/10-9----|
||o-/8-8-8-8-8-8-8-8S|=10-10-10-10-10-------10-|
||-------------------|-------------------------|


                     1.,2.,3.
   E E E E E E E E    E  E  E  E  E   E E  E
|------------------|-------------------------||
|------------------|----------------/10-9---o||
|-/8-8-8-8-8-8-8-8S|=10-10-10-10-10-------10o||
|------------------|-------------------------||


             Outro
  4.
   ~~
   W           W          Q.     Q  Q  E   W          H    Q.   E
|-----------|-----------|----------------|----------|-------------|
|-12--------|-----------|----------------|----------|-------------|
|-----------|-/5--------|------/10--9--5-|----------|-------------|
|-----------|-----------|----------------|-3--------|-3---------3-|


  Q=75                     Q=70
                                                     ~~
  W          H    Q.   E   W          H    Q.   E    W
|----------|-------------|----------|-------------|------*|
|----------|-------------|----------|-------------|------*|
|----------|-------------|----------|-------------|-12---*|
|-2--------|-2---------2-|-3--------|-3---------3-|------*|


Duration Legend
---------------
W - whole; H - half; Q - quarter; E - 8th; S - 16th; T - 32nd; X - 64th; a - acciaccatura
+ - note tied to previous; . - note dotted; .. - note double dotted
Uncapitalized letters represent notes that are staccato (1/2 duration)
Irregular groupings are notated above the duration line
Duration letters will always appear directly above the note/fret number it represents the
duration for.  Duration letters with no fret number below them represent rests.  Multi-
bar rests are notated in the form Wxn, where n is the number of bars to rest for.  Low
melody durations appear below the staff

Tablature Legend
----------------
 h   - hammer-on
 p   - pull-off
 b   - bend
 pb  - pre-bend
 r   - bend release (if no number after the r, then release immediately)
 /\  - slide into or out of (from/to "nowhere")
 s   - legato slide
 S   - shift slide
  - natural harmonic
[n]  - artificial harmonic
n(n) - tapped harmonic
 ~   - vibrato
 tr  - trill
 T   - tap
 TP  - trem. picking
 PM  - palm muting
\n/  - tremolo bar dip; n = amount to dip
 \n  - tremolo bar down
 n/  - tremolo bar up
/n\  - tremolo bar inverted dip
 =   - hold bend; also acts as connecting device for hammers/pulls
 <>  - volume swell (louder/softer)
 x   - on rhythm slash represents muted slash
 o   - on rhythm slash represents single note slash

Misc Legend
-----------
 |  - bar
||  - double bar
||o - repeat start
o|| - repeat end
*|  - double bar (ending)
 :  - bar (freetime)
 $  - Segno
 &  - Coda
Tempo markers -  = BPM(8/16=s8/s16), where s8 = swing 8ths, s16 = swing 16ths
Comments