Benton Falls - Trial And Terror Chords & Tabs

 

Trial And Terror Chords & Tabs

Benton Falls Chords & Tabs

Version: 1 Type: Tab 0 ratings
1 star 2 stars 3 stars 4 stars 5 stars
comments

Trial And Terror Tab

ARTIST: Benton Falls
TITLE:  Trial And Terror
TABBER:	Luke Charman (emoluke {AT} gmail.com)

--

Great band. Great song.

--

e|-----------------------------------------------------|
B|-------6-6-6-5-5-5--------------6-6-6-5-5-5----------|
G|-------------------5-5----------------------5-5------|
D|--0-0x-----------------5-5-5-5x-----------------5-5--|
A|--0-0x---------------------5-5x----------------------|
D|--0-0x---------------------5-5x----------------------|
[ Tab from: http://www.guitartabs.cc/tabs/b/benton_falls/trial_and_terror_tab.html ]
e|-----------------------------------------------------|
B|-------6-6-6-5-5-5-----------------------------------|
G|-------------------5-5----------5-5-5----------------|
D|--8-8x-----------------5-5-8-8x-------5-5-5-7-8-7-5--|
A|--8-8x---------------------8-8x----------------------|
D|--8-8x---------------------8-8x----------------------|

e|-----------------------------------------------------|
B|-------6-6-6-5-5-5--------------6-6-6-5-5-5----------|
G|-------------------5-5----------------------5-5------|
D|--0-0x-----------------5-5-5-5x-----------------5-5--|
A|--0-0x---------------------5-5x----------------------|
D|--0-0x---------------------5-5x----------------------|

e|---------------------------------------|
B|-------6-6-6-5-5-5---------------------|
G|-------------------5-5-----------------|
D|--8-8x-----------------5-5-5~----7~----|
A|--8-8x---------------------------------|
D|--8-8x---------------------------------|
Comments