Bent - Always Chords & Tabs

 

Always Chords & Tabs

Bent Chords & Tabs

Version: 1 Type: Bass Tab 0 ratings
1 star 2 stars 3 stars 4 stars 5 stars
comments

Always Bass Tab

----------------------------------------------------------------------------
BENT - Always
---------------------------------------------------------------------------
tabbed by :jude ainsworth
email: disco_mushroom@hotmail.com

tres good tune - basically all u do is improvise around the top notes of the sequence 
the 4 of the 2,4,4 (listen to the track to get the basics)
i'm not sure the (1) is the right note. I think there is a different tuning somewhere 
i can't be bothered to be honest. It sounds alright with standard tuning to me :)
hope the tab gives u the idea
[ Tab from: http://www.guitartabs.cc/tabs/b/bent/always_btab.html ]
(1:01)
E--------------------------------------------------------------|
A------4--4---------6--6---------8-8---------------------------|
D----4------4-----6------6-----8-----8-------------------------|
G--2------------4-----------6----------------------------------|

E-----------------------------------------------------------------|
A--------4---4------------6---6-----------1-1--------1-1----------|
D-----4----4--4--------6-----6---------1------1----1-----1-1------|
G--2----------------4--------------(1)------------(1)-------------|

E---------------------------------------------------------------|
A------4--4---------6--6---------8-8---------8-8-8--------------|
D----4------4-----6------6-----8-----8-----8-------8------------|
G--2------------4-----------6-----------6-----------------------|

(02.42)
E----------------------------------------------------------------|
A------4--4---------6--6---------8-8---------8-10-8---8----------|
D----4------4-----6------6-----8-----8-----8--------8------------|
G--2------------4-----------6-----------6------------------------|
Comments