Benoit David - Palmetto Park Chords & Tabs

 

Palmetto Park Chords & Tabs

Benoit David Chords & Tabs

Version: 1 Type: Bass Tab 0 ratings
1 star 2 stars 3 stars 4 stars 5 stars
comments

Palmetto Park Bass Tab

Palmetto Park
Written by David Benoit & Russ Freeman
Tabbed by Justinus Juan physco_o@hotmail.com
Taken from Benoit|Freeman Project 2 Album

Intro

G|--------------------------------------------------------------------|
D|--------------------------------------------------------------------|
A|---12s3-------8-7---------------------------------------------------|
E|------------8-------------------------------------------------------|

Verse

G|-----------------------------------------------------------------|
D|-----------------------5-----------------------------2s4-2-------|
A|---3-3----3-2-----3-3----3-2-----3-3----3-2-------2--------------| x2
E|--------3-----------------------------3---------0----------------|

Chorus
[ Tab from: http://www.guitartabs.cc/tabs/b/benoit_david/palmetto_park_btab.html ]
G|--------------------------------------------------------------------|
D|--------0-----------------------------------------------------------|
A|-----------3--2-----2s4—4h5p4p0-------0--3---3----------------------|
E|---0-0-----------0----------------0-0------0---0--------------------|

Intro

G|--------------------------------------------------------------------|
D|--------------------------------------------------------------------|
A|---12s3-------8-7---------------------------------------------------|
E|------------8-------------------------------------------------------|

Verse

G|-----------------------------------------------------------------|
D|-----------------------5-----------------------------2s4-2-------|
A|---3-3----3-2-----3-3----3-2-----3-3----3-2-------2--------------| x2
E|--------3-----------------------------3---------0----------------|
Comments