Benjamins - Sophia On The Stereo Chords & Tabs

 

Sophia On The Stereo Chords & Tabs

Benjamins Chords & Tabs

Version: 1 Type: Tab 0 ratings
1 star 2 stars 3 stars 4 stars 5 stars
comments

Sophia On The Stereo Tab

Artist:  The Benjamins
Song:  Sophia On The Stereo
Tabbed By: Jeremy R. j_rhees@yahoo.com if there's something wrong, e-mail me and I'll change it.

Verse/Chorus:				End of Chorus:
e:--------------------------------------------		e:----
B:-------------------------------------------		B:---
G:-6-6-6-6--7-7-7-7----------------------		G:-7-
D:-6-6-6-6--7-7-7-7--2-2-2-2-2-2-2-2-		        D:-7-
A:-4-4-4-4--5-5-5-5--2-2-2-2-2-2-2-2-		        A:-5-
E:-------------------0-0-0-0-0-0-0-0-		        E:----

Chorus (for guitar 1)			End of Chorus (guitar 1)
e:------------------------------------		e:-12-10-9---------
B:------------------------------------		B:-----------12-10-
G:-6---6---7---7---9---9---9---9--		G:-------------------
D:---6---6---7---7---9---9---9---9		D:-------------------
A:-----------------------------------		A:-------------------
E:------------------------------------		E:--------------------
[ Tab from: http://www.guitartabs.cc/tabs/b/benjamins/sophia_on_the_stereo_tab.html ]
Bridge:
e:-------------------------------------------------------
B:-------------------------------------------------------
G:-------------------------------------------------------
D:-7-7-7-7--9-9-9-9--12-12-12-12-12-12-12-12-
A:-7-7-7-7--9-9-9-9--12-12-12-12-12-12-12-12-
E:-5-5-5-5--7-7-7-7--10-10-10-10-10-10-10-10-

Solo:
e:------------------------------------------------------------------------------------------------------------------------
B:-----------------------------------------------------------------------------------------------------------------------
G:-14-11-9----------------------14-11-9-11----------------14-11-9-11--------------------------------------------
D:-----------9-9-9-7-9-11-9-7---------------9-7-11-11-7---------------9-9-7-9-11-9-7-9-11-12-11----------
A:-------------------------------------------------------------------------------------------------------------9-7-4---
E:---------------------------------------------------------------------------------------------------------------------5-

Ending:
e:---------------------
B:---------------------
G:---------------------
D:-7-7--9-9--12-12-
A:-7-7--9-9--12-12-
E:-5-5--7-7--10-10-
Comments