Benetar Pat - Harden My Heart Chords & Tabs

 

Harden My Heart Chords & Tabs

Benetar Pat Chords & Tabs

Version: 1 Type: Tab 0 ratings
1 star 2 stars 3 stars 4 stars 5 stars
comments

Harden My Heart Tab

   
Pat Benatar
Harden My Heart

INTRO
    Bm         G            A       G   A
|------9-7-|---12--10h12-14-12---12-14vv--|
|-7h10-----|-7----------------------------|
|----------|------------------------------|
|----------|------------------------------|
|----------|------------------------------|
|----------|------------------------------|

VERSE 1
   Bm    
Right on the corner, waiting in the rain
    A
I swear I'll never ever wait again
    Bm
He gave me a word, words for you
    A     (Riff 1)
All lies

PRE-CHORUS
   G            A
Darling in my wildest dreams
   Bm     A        G
I never thought I'd go
   Bm            A       G   A
But it's time to let you go

CHORUS
   Bm                    (Riff 2)
I'm gonna harden my heart
    A                    (Riff 3)
I'm gonna swallow my tears
           G    A   Bm   A    G
I'm gonna turn and leave you here
[ Tab from: http://www.guitartabs.cc/tabs/b/benetar_pat/harden_my_heart_tab.html ]
VERSE
PRE-CHORUS
CHORUS
INTRO
SOLO:
|----------------------------------------------|
|--------------------------12----10------9\7---|
|-9-7---9------------------11-----9------7\6---|
|-----9---7---9-7-9vv---/9-----/7-----/5-------|
|----------------------------------------------|
|----------------------------------------------|

|-----------------------7-----|-19-22-19--17-19--------------|
|-----------------------------|-----------------19-----------|
|-----7-9b11--9-7---7b8-------|--------------------16-19-16--|
|-7h9-------------9--------9--|------------------------------|
|-----------------------------|------------------------------|
|-----------------------------|------------------------------|

|----------------------------|
|----------------------------|
|-------18-16---11-9--7\4vv--|
|-16h18----------------------|
|----------------------------|
|----------------------------|

ENDING: Riff 4


Riff 1      Riff 2     Riff 3     Riff 4
|---------|----------|----------|-------------------------------|
|-7-5-3-2-|-7--------|-5--------|-----7-----7-----7------7--7\5-|
|-7-6-4-2-|-7--------|-6--------|-----7-----7-----7------7--7\6-|
|---------|----9-9vv-|----7-7vv-|-9-9---9-9---9-9----9-9--------|
|---------|----------|----------|-------------------------------|
|---------|----------|----------|-------------------------------|
Comments