Bender - Isolate Chords & Tabs

 

Isolate Chords & Tabs

Bender Chords & Tabs

Version: 1 Type: Tab 1 rating
1 star 2 stars 3 stars 4 stars 5 stars
comments

Isolate Tab

   
Bender
Isolate
GUITAR
Transcribed by --====--
ss4_aaron@yahoo.com

tuning:

e b
b b
G b
D b
A b
D b

[intro/main]

e|--------------------------------------------------------------------------------------|
B|--------------------------------------------------------------------------------------|
G|--------------------------------------------------------------------------------------|
D|-9-9-9-9-11--5-5-5-5-7-5--0-0-4-5-4-0--2-2-4-5-4--------------------------------------|
A|-9-9-9-9-9---5-5-5-5-5-5--0-0-0-0-0-0--2-2-2-2-2--------------------------------------|
D|-9-9-9-9-9---5-5-5-5-5-5--0-0-0-0-0-0--2-2-2-2-2--------------------------------------|

(repeat as needed)

[chorus]

e|--------------------------------------------------------------------------------------|
B|--------------------------------------------------------------------------------------|
G|--------------------------------------------------------------------------------------|
D|-12-12-12-12-12--7-7-7-7-7-7-7--2-2-2-2-2-2-2--5-5-5-5-5-5-5--------------------------|
A|-12-12-12-12-12--7-7-7-7-7-7-7--2-2-2-2-2-2-2--5-5-5-5-5-5-5--------------------------|
D|-12-12-12-12-12--7-7-7-7-7-7-7--2-2-2-2-2-2-2--5-5-5-5-5-5-5--------------------------|

[postchorus/ending]
[ Tab from: http://www.guitartabs.cc/tabs/b/bender/isolate_tab.html ]
e|--------------------------------------------------------------------------------------|
B|--------------------------------------------------------------------------------------|
G|--------------------------------------------------------------------------------------|
D|9-9-9-9-9/-7-7-7-7-7/-5-5-5-5-5-0x-0x-0x-0x---9-9-9-9-9/-7-7-7-7/-5-5-5-5-5-0x-0x-0x0x|
A|9-9-9-9-9/-7-7-7-7-7/-5-5-5-5-5-0x-0x-0x-0x---9-9-9-9-9/-7-7-7-7/-5-5-5-5-5-0x-0x-0x0x|
D|9-9-9-9-9/-7-7-7-7-7/-5-5-5-5-5-0x-0x-0x-0x---9-9-9-9-9/-7-7-7-7/-5-5-5-5-5-0x-0x-0x0x|

[afterpostchorus]
use high distortion and vibrato effect on this, turn the speed up on the vibrato to make it sound right, on my amp I turn it up to about 7
e|--------------------------------------------------------------------------------------|
B|--------------------------------------------------------------------------------------|
G|--------------------------------------------------------------------------------------|
D|-0-0-5-0-5-5-0-5-5-0-5-0--------------------------------------------------------------|
A|-0-0-5-0-5-5-0-5-5-0-5-0--------------------------------------------------------------|
D|-0-0-5-0-5-5-0-5-5-0-5-0-[let ring]---------------------------------------------------|

[pre ending] (before last chorus)

-play very quietly, and laid back, no distortion

e|--------------------------------------------------------------------------------------|
B|--------------------------------------------------------------------------------------|
G|--------------------------------------------------------------------------------------|
D|-0-0-0-2-2-2-5-5-5-7-7-5-0-0-0-2-2-2-5-5-5-7-7-5--------------------------------------|
A|-0-0-0-2-2-2-5-5-5-5-5-5-0-0-0-2-2-2-5-5-5-5-5-5--------------------------------------|
D|-0-0-0-2-2-2-5-5-5-5-5-5-0-0-0-2-2-2-5-5-5-5-5-5--------------------------------------|

--====--
ss4_aaron@yahoo.com

ORDER

[intro/main]6
[intro/main](distorted)4
[chorus](distorted)2
[afterpostchorus](distorted)2
[intro/main]6
[intro/main]4
[chorus]4
[afterpostchorus]2
[poschorus/ending]4
[pre ending]2
[chorus]4
[afterpostchorus]2
Comments