Ben Moody - The End Has Come Chords & Tabs

 

The End Has Come Chords & Tabs

Ben Moody Chords & Tabs

Version: 1 Type: Tab 0 ratings
1 star 2 stars 3 stars 4 stars 5 stars
comments

The End Has Come Tab

Ben Moody & Jason Miller
The end has come

This is a very easy song just figure out the timing
Standard tining EADGBe
Palm Muting-
Hammer on-h
Pull of-po
Bend-^

Intro: keyboards, then the guitar enters with a slight wah

Keyboards transcribed for guitar playing: 0:00-0:38
e|--------------------------------------------------------------------------------------------|
B|--12-13--10-12-8-7----12-13--10-12-8-10-7----12-13--10-12-8-10-7----12-13--10-12-8-10-7-----|
G|------------------(7)---------------------(7)--------------------(7)------------------------|
D|--------------------------------------------------------------------------------------------|
A|--------------------------------------------------------------------------------------------|
E|--------------------------------------------------------------------------------------------|
[ Tab from: http://www.guitartabs.cc/tabs/b/ben_moody/the_end_has_come_tab.html ]
Guitar part with wah: 0:39-0:48
e|----------------------------------------------------------------------------------------------|
B|----------------------------------------------------------------------------------------------|
G|----------------------------------------------------------------------------------------------|
D|----------------------------------------------------------------------------------------------|
A|------14-14----14-14--14h15-12---12-12-----12-12--12h14-14---14-14----14-14--14h15-12---12-12-|
E|--0-0-------0-0----------------0-------0-0-----------------0-------0-0----------------0-------|
                                                                              
Chorus: 0:50-1:09
e|--------------------------------------------------------------------------------------------------------------|
B|--------------------------------------------------------------------------------------------------------------|
G|-------------5-5--5-5-5--------------------------------------------------5-5--5-5-5---------------------------|
D|-2-2--2-2-2--5-5--5-5-5--5-5--5-5-5---9---------9---------9--2-2--2-2-2--5-5--5-5-5--5-5--5-5-5---9-----------|
A|-2-2--2-2-2--3-3--3-3-3--5-5--5-5-5---9---------9---------9--2-2--2-2-2--3-3--3-3-3--5-5--5-5-5---9-----------|
E|-0-0--0-0-0--3-3--3-3-3--3-3--3-3-3---7-0-0-0-0-7-0-0-0-0-7--0-0--0-0-0--3-3--3-3-3--3-3--3-3-3---7-0-0-7^8-7-|
                                                                                                 
Verse: 1:12-1:36
e|------------------------------------------------------------------------------------------------------|
B|------------------------------------------------------------------------------------------------------|
G|------------------------------------------------------------------------------------------------------|
D|------------------------------------------------------------------------------------------------------|
A|-----14-14----14-14--14h15-12--12-12---12-12--12h14-10--10-10---10-10--10h12-9--9-9--5-5-5-5-5-9-5-7--|
E|-0-0-------0-0---------------0------0-0---------------0------0-0---------------0----------------------|
                                                                        
Continues
e|----------------------------------------------------------------------------------------------------------------|
B|----------------------------------------------------------------------------------------------------------------|
G|----------------------------------------------------------------------------------------------------5-5/-7-x-7-x|
D|----------------------------------------------------------------------------------------------------5-5/-7-x-7-x|
A|-----14-14----14-14--14h15-12--12-12---12-12--12h14-10--10-10---10-10--10h12-9--9-9--5-5-5-5-5-9-5--3-3/-5-x-5-x|
E|-0-0-------0-0---------------0------0-0---------------0------0-0---------------0--------------------------------|
                                                                        
Chorus: 1:37-1:55
e|--------------------------------------------------------------------------------------------------------------|
B|--------------------------------------------------------------------------------------------------------------|
G|-------------5-5--5-5-5--------------------------------------------------5-5--5-5-5---------------------------|
D|-2-2--2-2-2--5-5--5-5-5--5-5--5-5-5---9---------9---------9--2-2--2-2-2--5-5--5-5-5--5-5--5-5-5---9-----------|
A|-2-2--2-2-2--3-3--3-3-3--5-5--5-5-5---9---------9---------9--2-2--2-2-2--3-3--3-3-3--5-5--5-5-5---9-----------|
E|-0-0--0-0-0--3-3--3-3-3--3-3--3-3-3---7-0-0-0-0-7-0-0-0-0-7--0-0--0-0-0--3-3--3-3-3--3-3--3-3-3---7-0-0-7^8-7-|
                                                                                                 
Break: 1:56-2:05
e|--------------------------------------------------------------|
B|--------------------------------------------------------------|
G|-----------------------------5-5-5--5-5-5---------------------|
D|-2-2-2--2-2-2--2-2-2--2-2-2--5-5-5--5-5-5--4-4-4--3-3-3-x-x-x-|
A|-2-2-2--2-2-2--2-2-2--2-2-2--3-3-3--3-3-3--4-4-4--3-3-3-x-x-x-|
E|-0-0-0--0-0-0--0-0-0--0-0-0--3-3-3--3-3-3--2-2-2--1-1-1-x-x-x-|
                                        
Bridge: 2:05-2:23
e|-------------------------------------------------------------------------------|
B|-------------------------------------------------------------------------------|
G|-----------------------------------------------5-5-----------------------------|
D|-2-2-----------------2--2-2-----------------2--5-5-----------------2-5-x-4-x-3-|
A|-2-2-----------------2--2-2-----------------2--3-3-----------------2-5-x-4-x-3-|
E|-0-0-0-2-0-3-0-2-0h3-0--0-0-0-2-0-3-0-2-0h3-0--3-3-0-2-0-3-0-2-0h3-0-3-x-2-x-1-|
                                                    (x2)
Chorus: 2:24-3:03
e|--------------------------------------------------------------------------------------------------------------|
B|--------------------------------------------------------------------------------------------------------------|
G|-------------5-5--5-5-5--------------------------------------------------5-5--5-5-5---------------------------|
D|-2-2--2-2-2--5-5--5-5-5--5-5--5-5-5---9---------9---------9--2-2--2-2-2--5-5--5-5-5--5-5--5-5-5---9-----------|
A|-2-2--2-2-2--3-3--3-3-3--5-5--5-5-5---9---------9---------9--2-2--2-2-2--3-3--3-3-3--5-5--5-5-5---9-----------|
E|-0-0--0-0-0--3-3--3-3-3--3-3--3-3-3---7-0-0-0-0-7-0-0-0-0-7--0-0--0-0-0--3-3--3-3-3--3-3--3-3-3---7-0-0-7^8-7-|
                                                                                         
Comments