Ben Moody - The End Has Come Chords & Tabs

 

The End Has Come Chords & Tabs

Ben Moody Chords & Tabs

Version: 1 Type: Bass Tab 0 ratings
1 star 2 stars 3 stars 4 stars 5 stars
comments

The End Has Come Bass Tab

   
Album: 
Artist: Ben Moody ft. Jason Miller and Dashboard Confessional
Tab by UnterTaker

To view better the tabs copy it view it in a writning program...
then change the text format
in Courier New, size 8 or 10.... good quality!!

Chorus
G|--------------------------------------------------------------------|
D|--------------------------------------------------------------------|
A|-22-222-33-333-55-555---------------22-222-33-333-55-555------------|
E|----------------------7-000-7-000-7----------------------7-00-7h8-7-|
                          xxx   xxx                          xx
      
Verse
G|-----------------------------------------------------------------------------------------------------|
D|-----------------------------------------------------------------------------------------------------|
A|-----14-14----14-14-14-12-----12-12-----12-12-12-10-----10-10-----10-10-10-9-----9-9-5-5-5-5-5-9-5-7-|
E|-0-0-------0-0------------0-0-------0-0-------------0-0-------0-0------------0-0---------------------|
[ Tab from: http://www.guitartabs.cc/tabs/b/ben_moody/the_end_has_come_btab.html ]
G|---------------------------------------------------------------------------------------------------------------|
D|---------------------------------------------------------------------------------------------------------------|
A|-----14-14----14-14-14-12-----12-12-----12-12-12-10-----10-10-----10-10-10-9-----9-9-5-5-5-5-5-9-5-3-3/5-5-5-5-|
E|-0-0-------0-0------------0-0-------0-0-------------0-0-------0-0------------0-0-------------------------------|
pm                                                                                                         .   .

Chorus
G|--------------------------------------------------------------------|
D|--------------------------------------------------------------------|
A|-22-222-33-333-55-555---------------22-222-33-333-55-555------------|
E|----------------------7-000-7-000-7----------------------7-00-7h8-7-|
                          xxx   xxx                          xx

Bridge 1
G|------------------------------|
D|------------------------------|
A|------------------------------|
E|-00-000000-333333-222-111-111-|
pm                          ...

Bridge 2
G|-----------------------------------------------|
D|-----------------------------------------------|
A|-----------------------------------------------| x2
E|-00020302030-00020302030-33020302030-3-3-2-2-1-|
pm   .........   .........   .........   .   .

Chorus
G|--------------------------------------------------------------------|
D|--------------------------------------------------------------------|
A|-22-222-33-333-55-555---------------22-222-33-333-55-555------------|
E|----------------------7-000-7-000-7----------------------7-00-7h8-7-|
                          xxx   xxx                          xx

I think it's 99,9999999% correct so... good play!


X UnderTaker X
Comments