Ben Howard - Only Love Chords & Tabs

 

Ben Howard Chords & Tabs

Version: 1 Type: Tab 0 ratings
1 star 2 stars 3 stars 4 stars 5 stars
comments

Only Love Tab

Tabbed by: Chris Bailey (Bournemouth)
Email/Facebook: Chrisbailey83_uk@hotmail.com
Creator of www.ukguitarlessons.com

Ben Howard  - ONLY LOVE
(What a beautiful song)


I have tabbed the basics of this song, so its not the complete tab but enough to get you started.
The tuning should be correct for you


TUNING (ALTERNATE)
I believe he uses A# F C G G C tuning with a 3rd fret capo
Tune the low E down to A#
Tune the A string down to F
Tune the D down to C
Keep the G as it is
Tune the B down to the same G as previous string
Tune high E down to C


MAIN VERSE
[ Tab from: http://www.guitartabs.cc/tabs/b/ben_howard/only_love_tab.html ]
D---------0----------------0-------------------12---12----------12--12--   
B----------------------------------------------12---12----------12--12--   
E-------------0----------------0---------------12---12----------12--12--   
D--5-5------4-----5---5------4-----------9-9------------9---9-----------   
G--4-4------------4---4------------------7-7------------7---7-----------   
D--4-4-4----------4---4-4-----------4----7-7-7----------7---7-----------x2

D---------0----------------0-------------------12---12----------12--12--   
B----------------------------------------------12---12----------12--12--   
E-------------0----------------0---------------12---12----------12--12--   
D--5-5------4-----5---5------4-----------9-9------------9---9-----------   
G--4-4------------4---4------------------7-7------------7---7-----------   
D--4-4-4----------4---4-4-----------4----7-7-7----------7---7-----------x2

CHORUSY BIT
Variations around these chords:

D----------------------  
B--0---0---0---0-------   
E--0---0---0---0-------   
D--5---4---9---12/9----  
G--4---2---7---0-------   
D--4---2---7---0-------

Comments