Ben Harper - With My Own Two Hands Chords & Tabs

 

With My Own Two Hands Chords & Tabs

Ben Harper Chords & Tabs

Version: 1 Type: Tab 0 ratings
1 star 2 stars 3 stars 4 stars 5 stars
comments

With My Own Two Hands Tab

e||--------------------|----------------5------|
b||--------------------|----------------5----5-|
g||-2------------------|----------------5----7-|
d||---2----------------|----------------7-5--7-|
a||-----3-2--0-------2-|-----------0-0---------|
e||--------------------|-3-3-3-----------------|

|-----------5-------5------------|---------------------5-----|
|-----------5-------5------------|---------------------5---5-|
|--7-5--x-x---x-x-x---x-x-5-5-x--|-4--x-x-4-4--5---x-x-5-5-7-|
|--7-7--x-x---x-x-x---x-x-7-7-x--|-5--x-x-5-5--7---x-x---7-7-|
|--------------------------------|---------------------------|
|--------------------------------|---------------------------|
[ Tab from: http://www.guitartabs.cc/tabs/b/ben_harper/with_my_own_two_hands_tab.html ]
|-----------5-------5------------|---------------------5-----|
|-----------5-------5------------|---------------------5-----|
|--7-5--x-x---x-x-x---x-x-5-5-x--|-4--x-x-4-4--5---x-x-5-5-7-|
|--7-7--x-x---x-x-x---x-x-7-7-x--|-5--x-x-5-5--7---x-x---7-7-|
|--------------------------------|---------------------------|
|--------------------------------|---------------------------|

|-----------5-------5------------|---------------------5-----|
|-----------5-------5------------|---------------------5-----|
|--7-5--x-x---x-x-x---x-x-5-5-x--|-4--x-x-4-4--5---x-x-5-5-4-|
|--7-7--x-x---x-x-x---x-x-7-7-x--|-5--x-x-5-5--7---x-x---7-5-|
|--------------------------------|---------------------------|
|--------------------------------|---------------------------|

|----------------------------|--------------------------|
|-----------------------0--x-|-----------------1--1-----|
|--x-x-4-4-x-2------x-x-0--x-|-----------------2------4-|
|--x-x-5-5-x-3------x-x------|----------2------2------5-|
|----------------------------|--0-0-2-3-----------------|
|----------------------------|--------------------------|
Comments