Ben Harper - Walk Away Chords & Tabs

 

Walk Away Chords & Tabs

Ben Harper Chords & Tabs

Version: 1 Type: Tab 0 ratings
1 star 2 stars 3 stars 4 stars 5 stars
comments

Walk Away Tab

So, this is what i think about this song..im not to 
sure if its all right, but it 
sounds good to me so i hope u like it

Sexy_rockette




e|--------------------------------------------|
B|------0-0----0-0-----0-0-------0-0----------|
G|------3-3----3-3-----3-3-------3-3----------|  (x5)
D|--------------------------------------------|
A|--------------------------------------------|
D|-3-3------2-2----0-0-----3h2-2--------------|

e|--------------------------------------------|
B|------0-0----0-0-----0-0-------0-0----------|
G|------3-3----3-3-----3-3-------3-3----------|  (x2)
D|--------------------------------------------|
A|-3-3------2-2----0-0------------------------|
D|--------------------------3-3---------------|

e|--------------------------------------------|
B|------0-0----0-0-----0-0-------0-0----------|
G|------3-3----3-3-----3-3-------3-3----------|  (x1)
D|--------------------------------------------|
A|-3-3------2-2----0-0------------------------|
D|--------------------------3h2-2-------------|
[ Tab from: http://www.guitartabs.cc/tabs/b/ben_harper/walk_away_tab.html ]
e|--------------------------------------------|
B|------0-0----0-0-----0-0-------0-0----------|
G|------3-3----3-3-----3-3-------3-3----------|  (x5)
D|--------------------------------------------|
A|--------------------------------------------|
D|-3-3------2-2----0-0-----3h2-2--------------|

e|--------------------------------------------|
B|------0-0----0-0-----0-0-------0-0----------|
G|------3-3----3-3-----3-3-------3-3----------|  (x2)
D|--------------------------------------------|
A|-3-3------2-2----0-0------------------------|
D|--------------------------3-3---------------|

e|--------------------------------------------|
B|------0-0----0-0-----0-0-------0-0----------|
G|------3-3----3-3-----3-3-------3-3----------|  (x1)
D|--------------------------------------------|
A|-3-3------2-2----0-0------------------------|
D|--------------------------3h2-2-------------|

e|--------------------------------------------|
B|------0-0----0-0-----0-0-------0-0----------|
G|------3-3----3-3-----3-3-------3-3----------|  (x4)
D|--------------------------------------------|
A|-0-0----------------------------------------|
D|----------0-0----3-3------2-2---------------|

e|--------------------------------------------|
B|------0-0----0-0-----0-0-------0-0----------|
G|------3-3----3-3-----3-3-------3-3----------|  (x5)
D|--------------------------------------------|
A|--------------------------------------------|
D|-3-3------2-2----0-0-----3h2-2--------------|
Comments