Ben Harper - Waiting On An Angel Chords & Tabs

 

Waiting On An Angel Chords & Tabs

Ben Harper Chords & Tabs

Version: 2 Type: Tab 0 ratings
1 star 2 stars 3 stars 4 stars 5 stars
comments

Waiting On An Angel Tab

----------------------------------------------------------------------------
	             WAITING ON AN ANGEL - Ben Harper
----------------------------------------------------------------------------
Tabbed by: jumping iguana
Email: jumping_iguana@hotmail.com

Tuning: EADGBE

     I tabbed this out using the live version for "live from mars". knowing
ben harper its likely the original is played using DGCFAD tuning (my guitar
is permenantly tuned this way due to the fact that a play so much ben harper
and so when playing in standerd tuning i use a capo on second (cause im well cool!!!))

acoustic (if u couldnt tell)

e|-------------------------------------------------------------------------|
B|-----1-1-----1-1----1-1-----0-0h1-------1-1-----1-1-----1-1--------------|
G|-----0-0-----0-0----0-0-----0-0---------0-0-----0-0-----0-0--------------|
D|-------------------------------------------------------------------------|
A|--3-------2-------0-------------------3-------2-------0------------------|
E|--------------------------3-----------------------------------3----------|


e|------------------------------------------------------------------------|
B|-----1-1-----1-1----1-1-----0-0h1------1-1-----1-1----1-1-----0-0-------|
G|-----0-0-----0-0----0-0-----0-0--------0-0-----0-0----0-0-----0-0-------|
D|------------------------------------------------------------------------|
A|--3-------2-------0------------------3-------2-------0------------------|
E|--------------------------3--------------------------------3------------|
    waiting   on an  angel
   one to   carry me home               hope you come and see me soon
[ Tab from: http://www.guitartabs.cc/tabs/b/ben_harper/waiting_on_an_angel_tab_ver_2.html ]
e|-------------------------------------------------------------------------|
B|-----1-1----0-0----1-1----1-1----1-1----0-0------------------------------|
G|-----2-2----0-0----2-2----0-0----2-2----0-0------------------------------|
D|-------------------------------------------------------------------------|
A|-----------------0-------------------------------------------------------|
E|--1-------3-------------0------1------3----------------------------------|
casue i
    dont wanna go alone        i dont wanna go alone

 (repeat verse with different lyrics):

   now angel wont you come by me
 angel hear my plea
 Take my hand, lift me up
 

e|-------------------------------------------------------------------------|
B|-----1-1----0-0----1-1----1-1----1-1----0-0------1-1----1-1--------------|
G|-----2-2----0-0----2-2----0-0----2-2----0-0------0-0----0-0--------------|
D|-------------------------------------------------------------------------|
A|-----------------0-----------------------------3-------------------------|
E|--1-------3-------------0------1------3---------------0------------------|
so that 
    i can   fly with the so that i can  fly with the
 
e|-------------------------------------------------------------------------|
B|-----1-1----0-0----1-1----1-1----1-1----0-0------1-1----1-1--------------|
G|-----2-2----0-0----2-2----0-0----2-2----0-0------0-0----0-0--------------|
D|-------------------------------------------------------------------------|
A|-----------------0-----------------------------3-------------------------|
E|--1-------3-------------0------1------3---------------0------------------|
and im
    waiting on an angle    and i know it wont be long
to find myself a  resting place in my angles arms


e|-------------------------------------------------------------------------|
B|-----1-1----0-0----------------------------------------------------------|
G|-----2-2----0-0----------------------------------------------------------|
D|-------------------------------------------------------------------------|
A|-------------------------------------------------------------------------|
E|--1-------3--------------------------------------------------------------|
 in my angels arms

back to verse:

   So speak kind to a stranger
 Cause you never know
 It just might be an angel come
 Nocking at your door
 Nocking at your door

chorus (same lyrics)

First verse again

outro: chorus riff repeating line
 i dont want to go alone


============================================================================
Comments