Ben Harper - Sweet Home Chicago Chords & Tabs

 

Sweet Home Chicago Chords & Tabs

Ben Harper Chords & Tabs

Version: 1 Type: Chords 0 ratings
1 star 2 stars 3 stars 4 stars 5 stars
comments

Sweet Home Chicago Chords

#----------------------------------PLEASE NOTE---------------------------------#
#This file is the author's own work and represents their interpretation of the #
#song. You may only use this file for private study, scholarship, or research. #
#------------------------------------------------------------------------------#
#

Sweet Home Chicago
------------------
Artist: Ben Harper
Album: Pleasure And Pain Vinyl

Tuning: D Tuning (DADF#AD)


Hypnothic Verse Riff:

      *-- Here you got to press your slide in order to make it
      |   touch the fret, achieving a kind of "clok" sound
      v
D :-|-\4--0----------------|-
A :-|-\4-----0-------------|-
F#:-|-----------0------0---|-
D :-|----------------------|-
A :-|---------------0------|-
D :-|----------------------|-
[ Tab from: http://www.guitartabs.cc/tabs/b/ben_harper/sweet_home_chicago_crd.html ]
End of chorus:
D :---\7----------\7----------\7----------\5--\5~-------\4---------
A :---\7----------\7----------\7----------\5--\5~-------\4---------
F#:---\7----------\7----------\7----------\5--\5~-------\4---------
D :---\7----------\7----------\7----------\5--\5~-------\4---------
A :---\7----------\7----------\7----------\5--\5~-------\4---------
D :----------------------------------------------------------------
     (back to that little light city)    (sweet home Chicago)
Lyrics:

(Oh Yeah)

verse:
Gypsy woman to said Ben          note: the lyrics for this verse are
You got a hambone this boar            wrong, if someone knows them
Get on down Chicago                    please post the right ones!
Get yours a hambone
Bone ground, baby

Mama don't you want to go
Hey Hey Hey
Baby don't you want to go
(play chorus riff)
Back to that little light city
Sweet home Chicago

One and one is two
Two and two is four
I'll be back tomorrow night
Mama, walk to the frontdoor

Hey Hey
Mama don't you want to go
No now
Baby don't you want to go
(play chorus riff)
Back to that little light city
Sweet home Chicago

Wait out man
(solo)

Two and two is four
Four and two is six
I'll be back tomorrow night
Soon as I get my business fix

Hey Hey
Mama don't you want to go
Hey Hey Hey
Baby don't you want to go
(play chorus riff)
Back to that little light city
Sweet home Chicago

Six and two is eight
Eight and two is ten
Once she fool you one time
She sure won't do it again

You know
I got to get down to my sweet home
Sweet home Chicago

Hey Hey
Mama don't you want to go
Hey Hey
Mama don't you want to go
(play chorus riff)
Back to that little light city
Sweet home Chicago
Comments