Ben Harper - Steal My Kisses Chords & Tabs

 

Steal My Kisses Chords & Tabs

Ben Harper Chords & Tabs

Version: 2 Type: Bass Tab 0 ratings
1 star 2 stars 3 stars 4 stars 5 stars
comments

Steal My Kisses Bass Tab

Steal My Kisses
Ben Harper-Burn to Shine "Steal My Kisses"
                                        Tab by Jamie Melbourne
                                                New Zealand
						soulmusic60@hotmail.com
I give no credit to Andy and his little pal. I tabbed this
song a long time ago for some friends. The only reason I am
putting this on is because the tab on your site is incorrect and
I don't want the world playing one of my fav bass riffs wrong.
Peace to Andy he got a few things right.

VERSE ONE
G-----------------------------------------------17-----------|-----------
D-------------------2-------------------\15h17---------------|-----------
A--------------1h2-------5-x------3--------------------------|-----------
E---3-------------------------3------------------------------|-----------

G-------------------4----------------------------x---17-15h16------------
D--------------3h4-------x-7-----------------------------------17--------
A---5--------------------------x-5---------------------------------------
E-----------------------------------3------------------------------------

G-----------------------------------------------17-----------|-----------
D-------------------2-------------------\15h17---------------|-----------
A--------------1h2-------5-x------3--------------------------|-----------
E---3-------------------------3------------------------------|-----------

G-------------------4----------------------------------------------------
D--------------3h4-------x-7------------------------5--------------------
A---5--------------------------x-5--------2--3---5------2----------------
E-----------------------------------3------------------------------------

G---------------------------------------------17--------------------------
D----------------2---------------------\15h17-----------------------------
A-----------1h2--------5--x-----3-----------------------------------------
E--3------------------------3---------------------------------------------

G-------------------4-------------------------x---17---15---16------------
D--------------3h4-------x-7-----------------------------------17---------
A---5--------------------------x-5----------------------------------------
E-----------------------------------3-------------------------------------

G---------------------------------------------17--------------------------
D----------------2---------------------\15h17-----------------------------
A-----------1h2--------5--x-----3-----------------------------------------
E--3------------------------3---------------------------------------------
						[------------------------]
							  End Run
G-------------------4------------------------|----------------------------
D--------------3h4-------x-7-----------------|----------------------------
A---5--------------------------x-5-----------|--5/7--7--5-----------------
E-----------------------------------3--------|-------------5--6--7--------


CHORUS ONE
G-------------------------------------------------------------------------
D---------------------------------------------------2-3-4-----------------
A------------------5-4-3----3-x-3--3-0-4-0-5-------------x-5--------------
E----3----5-6-7-----------------------------------------------3-----------

G------------------------------------------------------------------------
D------------------------------------------2-3-4-------------------------
A----5/7----7-5----------3-x-3--3-0-4-0-5---------x-5--------------------
E----------------5-6-7---------------------------------3-----------------

VERSE TWO
G-------------------------------------------------------------------------
D-------------SAME AS VERSE ONE---------EXCEPT FOR END RUN----------------
A-------------------------------------------------------------------------
E-------------------------------------------------------------------------

[--------------------------]
          End Run
G-------------------------------------------------------------------------
D-------------------------------------------------------------------------
A--2--X--3-4--X-5---------------------------------------------------------
E------------------X--0--2------------------------------------------------

CHORUS TWO
G-------------------------------------------------------------------------
D---------------------------------------------------2-3-4-----------------
A------------------5-4-3----3-x-3--3-0-4-0-5--------------x-5-------------
E----3----5-6-7------------------------------------------------3----------
[ Tab from: http://www.guitartabs.cc/tabs/b/ben_harper/steal_my_kisses_btab_ver_2.html ]
G----------------------------------------------7-7--6--5------------------
D-------------------------------------------------------------------------
A---5/7---7--5-----------------------5-4-3-----------------3--x--3--4--5--
E----------------5-6-7----3---5-6-7---------------------------------------

G----------------------------------------------|--------------------------
D--2-3-4--x--7-6-5-----------------------------|--------BREAK-------------
A--------------------2-x-3-x-4----5------------|--------------------------
E------------------------------------x--2------|--------------------------

BRIDGE
G------------------------------------------------------------|-------------
D------------------------------------------------------------|-------------
A--------------------------5------------------------/7-------|-------------
E-1/3---x-x-x---1--x-x--------x-1--1/3--x-x-x--1-------------|-------------

VERSE THREE
G---------------------------------------------17--------------------------
D----------------2---------------------\15h17-----------------------------
A-----------1h2--------5--x-----3-----------------------------------------
E--3------------------------3---------------------------------------------

G--------------4-----------------------x-17-x17-x15h16---------------------
D---------3h4------x7-----------------------------------17-----------------
A---5-------------------x5-------------------------------------------------
E-----------------------------3--------------------------------------------

G---------------------------------------------17--------------------------
D----------------2---------------------\15h17-----------------------------
A-----------1h2--------5--x-----3-----------------------------------------
E--3------------------------3---------------------------------------------

G----------------4--------------------------------------------------------
D-----------3h4-------x-7----------------------------x-2------------------
A---5---------------------x-5-----x-2-x-3--4---x-5------------------------
E-------------------------------3-----------------------x-2-----3---------

G--------------------|----------------------------------------------------
D----VOCAL BREAK-----|----------------------------------------------------
A--------------------|----------------------------------------------------
E--------------------|----------------------------------------------------

CHORUS THREE
G-------------------------------------------------------------------------
D---------------------------------------2-3-4-----------------------------
A---------------5-4-3---3-x-3--0-4-0-5----------x-5------7-x-5------------
E---3---5-6-7---------------------------------------x-3--------5-6-7------

G-------------------------------------------------------------------------
D---------------------------------------2-3-4-----------------------------
A--------------5-4-3--x--3-0-3-0-4-0-5-----------x-5------x-2-x-3-4-------
E--3---5-6-7------------------------------------------3-------------------

G-------------------------|-----------------------------------------------
D----------0-2-0-4--5-----|-----------------------------------------------
A---0--5------------------|-----------------------------------------------
E-------------------------|-----------------------------------------------

SOLO
G-------------------------5---|--------------------7---------------------|--
D------5----X3----------------|------------------------X2-X4---5---------|--
A----------------X5---3-------|--X--3-3--2-3-4-5-------------------2-----|--
E--3--------------------------|------------------------------------------|--
                               P
G--------------3h4--------------------------------------7-7-6-5------------
D--------3--5--------5-0--3----5------------x3-------------------5---------
A--2--5-----------------------------x4-x5--------3-----------------3-------
E--------------------------------------------------------------------------

G-------------------------------------------------|----------------3--------
D----------------x2-x3--4-------------------------|-----------3h5------5----
A--0-3-0-4-0-5--------------5---x-----------------|--x2-3-4-5---------------
E---------------------------------x--2------5-4-3-|-------------------------
                                                    P
G--5/6/5--3--------3-------------------------------5---|--------------------
D------------5--3------5-4-3--------/5----3------------|--------------------
A----------------------------5-4-3----------5--3-------|--3-x-2-3-4-x--5--5-
E------------------------------------------------------|--------------------

G------------------------------------------------------------|--------------
D--x--2-2--x-3-3--x--4-4--------5-------------2--0-3-0-4h5---|--------------
A---------------------------------2-3--x4-x5-----------------|--------------
E---------------------------3--------------------------------|---3----------

x: mute
h: hammer on
P: pop
/: slide

Enjoy people, Jah live!
Comments