Ben Harper - Sexual Healing Live Chords & Tabs

 

Sexual Healing Live Chords & Tabs

Ben Harper Chords & Tabs

Version: 1 Type: Tab 0 ratings
1 star 2 stars 3 stars 4 stars 5 stars
comments

Sexual Healing Live Tab

   
Song : Sexual Healing
Artist : Ben Harper
Album : Live From Mars

Tabbed by Jerome Desfeux (defff@caramail.com)

This is an easy song, just get the rythm !
E-mail for any questions.

h: hammer-on
p: pulling-off


Intro +  Verse :
[ Tab from: http://www.guitartabs.cc/tabs/b/ben_harper/sexual_healing_live_tab.html ]
       G                         Am            F                                    C
e] -------------------------------0--0--0-------------------------------------------------------------------------]
B] -------------------------------1--1--1-------------------------------------------------------------------------]
G]--------------------------------2--2--2-------------------------------------------------------------------------]
D] ----------0--0--0--------------2--2--2-------------------0--0--0----------------------0-h-2-p-0----------0-----]
A] ----------2--2--2------0---------------------------------0--0--0--------3------0-h-3----------------3----------]
E] ----3-----3--3--3---------------------------0---1---1----1--1--1-----------------------------------------------]


Chorus :
                               C                               E                  Am
e] --------------------------------------0--0-------------------0--0--------------0------]
B] --------------------------------------1--1-------------------0--0--------------1------]
G] --------------------0-----------------0--0-------------------2--2--------------2------]
D] ---0----2----3------------------------2--2------0-h-2--------2--2--------------2------]
A] --------------------------3----3------3--3-------------------1--1--------------0------]
E] --------------------------------------0--0-------------------0--0---------------------]
Comments