Ben Harper - Morning Yearning Chords & Tabs

 

Morning Yearning Chords & Tabs

Ben Harper Chords & Tabs

Version: 1 Type: Tab

Morning Yearning Tab

                                                                               
-------------------------------------------------------------------------------
			     MORNING YEARNING - Ben Harper
-------------------------------------------------------------------------------

Morning Yearning
By: Ben Harper
Album: Both Sides of the Gun
Tabbed by: Luke Skorniakoff
Email: skorniakoff@musician.org
Tuning:DAFCGD 
This is my first TAB. Its a little dodgy in some parts, but still pretty solid.
From RTL2 radio. Listen to the song for the rhythm.



repeated through the whole song.
D|-------2-------------2-------------2-----2--------------2-------------2--|
A|-------0----------0-------------0-----------0-----------0----------0-----|
F|---------------2-------------2----------------------------------2--------|
C|-------------------------------------------------------------------------|
G|--2---------2-------------2-----------2------------0---------0-----------|
D|-------------------------------------------------------------------------|


                                                                                
D|-----------2------------------2-----------2-------------2-----------2--------|
A|--------0---------------------------0-----------0-------------0-----------0--|
F|-----2-----------2/-4------------2-----------2-------------2-----------2-----|
C|-----------------------------------------------------------------------------|
G|--0-----------0--------------------------------------------------------------|
D|---------------------------0-----------0-------------0-----------0-----------|

[ Tab from: http://www.guitartabs.cc/tabs/b/ben_harper/morning_yearning_tab.html ]
                                                                              
D|----------------------------------------------------------2-------------2--|
A|-------3--2--0-------------0--3-----3--2--0---------------0----------0-----|
F|----------------2-----2----------------------2--------------------2--------|
C|---------------------------------------------------------------------------|
G|------------------------------------------------0----2---------2-----------|
D|--3----------------3-------------3-----------------------------------------|


                                                                             
D|-----------2-----2--------------2-------------2-------------2-------------|
A|--------0-----------0-----------0----------0-------------0----------------|
F|-----2----------------------------------2-------------2-----------2/-4----|
C|--------------------------------------------------------------------------|
G|--2-----------2------------0---------0-------------0-----------0----------|
D|--------------------------------------------------------------------------|


                                                                                
D|-----2-----------2-------------2-----------2---------------------------------|
A|-----------0-----------0-------------0-----------0---------3p-2p-0-----------|
F|--------2-----------2-------------2-----------2---------------------2-----2--|
C|-----------------------------------------------------------------------------|
G|-----------------------------------------------------------------------------|
D|--0-----------0-------------0-----------0-------------3----------------3-----|


                            
D|--------------------------||
A|--0h-3-----3p-2p-0--------||
F|--------------------2-----||
C|--------------------------||
G|-----------------------0--||
D|--------3-----------------||