Ben Harper - How Far Chords & Tabs

 

How Far Chords & Tabs

Ben Harper Chords & Tabs

Version: 1 Type: Tab 0 ratings
1 star 2 stars 3 stars 4 stars 5 stars
comments

How Far Tab

This song was written by me Liam Jackson, its a really good song so enjoy!!
                  
                                 HOW FAR
INTRO
E|--3-----------------------------------------|
B|--2----------2------------------------------|
G|-------------2------------------------------|
B|------------------------2---------2---------|
A|--3----3-----3----3-----3----3----3----3----|
E|--3--3---3---3--3---3---2--2---2--2--2---3--| 

E|--3------------------------|
B|--2----------2-------------|
G|-------------2-------------|
B|------------------------2--|
A|--3----3-----3----3-----3--|
E|--3--3---3---3--3---3---2--|

VERSE
E|--3--2-----|
B|--2--2-----|
G|-----------|
B|--------2--|
A|--3--3--3--|
E|--3--3--2--|    

CHORUS
E|-----------|
B|--3-----2--|
G|--2-----2--|
B|-----2-----|
A|--3--3--3--|
E|--3--3--3--|    


How Far
[ Tab from: http://www.guitartabs.cc/tabs/b/ben_harper/how_far_tab.html ]
VERSE 1
No matter how far you go
You'll never ever know
Who you really are
No matter how far

CHORUS
Now let me tell you this
Your heart will always be at home
No matter where you go
You'll never ever know

VERSE 2 
Next week your leaving town
Your leaving without a sound
Now I hope you'll change your mind
Cause here at home your heart you'll find

CHORUS
Now let me tell you this
Your heart will always be at home
No matter where you go
You'll never ever know

VERSE 3
I know you have stuff to think about
But running away wont sort them out
And now you'll go and see
Where your heart should be

CHORUS
Now let me tell you this
Your heart will always be at home
No matter where you go
You'll never ever know

BRIDGE

CHORUS
Now let me tell you this
Your heart will always be at home
No matter where you go
You'll never ever know
Comments