Ben Harper - Ground On Down Chords & Tabs

 

Ground On Down Chords & Tabs

Ben Harper Chords & Tabs

Version: 1 Type: Bass Tab 0 ratings
1 star 2 stars 3 stars 4 stars 5 stars
comments

Ground On Down Bass Tab

                             GROUND ON DOWN
              BEN HARPER-dall'album "FIGHT FOR YOUR MIND"
                                            tabulato da STEFANO BERTOCCO
                                                        sfighengjs@iol.it
                                                        18 dicembre 1999
                                                        Treviso, ITALIA 
[ Tab from: http://www.guitartabs.cc/tabs/b/ben_harper/ground_on_down_btab.html ]
    VERSO                                                               
G-----------------------------------|----------------------------------
D-----------------------------------|-----------------------------------
A---3--3h5/(6)--3-8----------8/9----|-----------------------------------
E-------------------------8---------|-----------------------------------
                                                                        

    FINE VERSO              (with variations)                           
G---------------------------------------------|-------------------------
D---------------------------------------------|-------------------------
A---3-----3--1-----1--0--------0---5/(6)-8/9--|-------------------------
E---------------------------------------------|-------------------------
                                                                        

    PONTE                                                               
G--------------------------------        -----------------|-------------
D--------------------------------        -----------------|-------------
A---3-----3--3--3--3--3--3--3--3-........--3-----1-----0--|-------------
E--------------------------------        -----------------|-------------
Comments