Ben Harper - Glory And Consequence Chords & Tabs

 

Glory And Consequence Chords & Tabs

Ben Harper Chords & Tabs

Version: 2 Type: Tab 0 ratings
1 star 2 stars 3 stars 4 stars 5 stars
comments

Glory And Consequence Tab

Ben Harper
Live from Mars
Standard Tuning (EADGBe)

Intro
------------------------------------------------------------------|
------------------------------------------------------------------|
-------0h2p0----------------0h2p0--------5-------0h2p0------------|
---0-2-------3p2p0--3---0-2--------3p2p0-5--0-2--------3p2p0---5--|
--------------------3--------------------3---------------------5--|
--------------------1------------------------------------------3--|

---------------------------|
---------------------------|
---------------------------|
------0h2p0----------5-----|
--0-2-------3p2p0----5-----|
---------------------3-----|

Chorus
------------------1------------------------------------3--|
------------------1-----------------5------------------3--|
-------0-2p0------2-------0-2p0-----5------0-2p0-------4--|
---0-2-------3p0--3---0-2-------3p0-5--0-2-------3p0---5--|
------------------3-----------------3------------------5--|
------------------1------------------------------------3--|
[ Tab from: http://www.guitartabs.cc/tabs/b/ben_harper/glory_and_consequence_tab_ver_2.html ]
-------------------3-----|
-------------------3-----|
------0-2p0--------4-----|
--0-2-------3p0----5-----|
-------------------5-----|
-------------------3-----|

Verse
-----3----1--x-------------------------------------------------------|
-----5----1--x-------------------------------------------------------|
-----5----2--x-------------------------------------------------------|
-----5----3--x-------------------------------------------------------|
-----3----3--x----------------1-1---------------1-1------------------|
----------1--x--1-3-1-3-1-3-1-----1-3-1-3-1-3-1----------------------|

This is a great guitar song. Strumming patterns are really easy to figure out
so you can that yourself and how many times to play it during the chorus or
verse. Only tip is in intro you have to make the part when you hammer and
pull flow, but thats the only hard part. Dont have the little solo, sorry
not a good tabber or whatever. Also the part with x are just muted strings,
the other tab says he play a G5 but that just wastes time and it sounds
better if you just mute the strings. Enjoy MWP
Comments