Ben Harper - Give A Man A Home Chords & Tabs

 

Give A Man A Home Chords & Tabs

Ben Harper Chords & Tabs

Version: 1 Type: Tab 0 ratings
1 star 2 stars 3 stars 4 stars 5 stars
comments

Give A Man A Home Tab

Ben Harper
GIVE A MAN A HOME (Open tuning to D) 
--------------------------------------------------------------------------------
[ Tab from: http://www.guitartabs.cc/tabs/b/ben_harper/give_a_man_a_home_tab.html ]
|----------------------------------------------------------------------||
|----------------------------------------------------------------------||
|---------------------------------------------------------------------.||  
|-----0-0---0--0-------------------------------------------------0----.||
|------------------9-9---9---9s7---7-7---------6-------5---5-0h2p0-----||
|--0------0--0---9------9---9----7-----7---7s6---6s5-5-----------------|||------------------------------------------------------------------------||
|------------------------------------------------------------------------||
|------------------------------------------------------------------------||
|------0-0--------------7-7-------------------------------------------0--||
|----0-------0---9s---7-------7---7s9--9--9---9-----7-----5-5---5-0h2----||
|--0-------0---0----7-------7---7-----------9---9s7---7s5----------------||    Have you ever lost your way
                have you ever feared another day
                have you ever misplaced your mind
              watching this world leave you behind

                           won't you 
                         won't you give
                      won't you give a man
                        give a man a home

                     have you ever worn thin
            have you ever never known where to begin
                 have you ever lost your belief
                watching your faith turn to grief

                           won't you 
                         won't you give
                      won't you give a man
                        give a man a home

                   in a world that is unwhole
             you have got to fight to keep your soul
               some would rather give than receive
          some would rather give up before they believe

                           won't you 
                         won't you give
                      won't you give a man
                        give a man a home
Comments