Ben Harper - Excuse Me Mr Chords & Tabs

 

Excuse Me Mr Chords & Tabs

Ben Harper Chords & Tabs

Version: 2 Type: Tab 0 ratings
1 star 2 stars 3 stars 4 stars 5 stars
comments

Excuse Me Mr Tab

   
 This is tabbed from the "Live from Mars" album. I think Ben tunes his guitars down a
tone or so, but this is for normal people who use normal tuning. Any comments, email
99ytuz@judd.kent.sch.uk

2^3=hammer/pull-off
[ Tab from: http://www.guitartabs.cc/tabs/b/ben_harper/excuse_me_mr_tab_ver_2.html ]
E-0------------------------------0------------------------------------0------|
B-1-0----------2-----------------1-0--------1-----2-------------------1-0----|
G-2--2-0-0^2-2---2-0-0-0-0-0-0^2-2--2-0-0^2---2-2---2-0-0-2-3-3^5-3-2-2--2-0-|
D-2------------------------------2------------------------------------2------|
A-0------------------------------0------------------------------------0------|
E-0------------------------------0------------------------------------0------|
 Am                             Am                                    Am

E---------------------------------------------------------------------------|
B---------2-----------------------------------------------------------------|
G-0-0^2-2---[2-2-2-2^0-0-0-0-0^2]-------------------------------------------|
D---------------------------------------------------------------------------|
A---------------------------------------------------------------------------|
E---------------------------------------------------------------------------|


The bit in brackets after you play the Am and picking bit at the end is repeated throughout the song.
 Enjoy
Comments