Ben Harper - Burn One Down Chords & Tabs

 

Burn One Down Chords & Tabs

Ben Harper Chords & Tabs

Version: 2 Type: Tab 0 ratings
1 star 2 stars 3 stars 4 stars 5 stars
comments

Burn One Down Tab

"burn on down" by Ben harper

Tabbed by connor k.      spokane, mhs...

This song is 100% correct for a fact!!!
Tuning:normal             

Intro:
e|----3-3------3-3-------------------3-3-----3-3------------------|
b|----3-3------3-3-------------------3-3-----3-3------------------|
g|----0-0------0-0-------------------0-0-----0-0------------------|
d|----0-0------0-0---------------0---0-0-----0-0---------------0--|
a|-------------------0-2---3-2-0-------------------0-2---3-2-0----|
e|3-------3-3------3-----3---------3-----3-3-----3-----3----------|

e|----3-3-----3-3---------------------3-3-----3-3-----------------|
B|----3-3-----3-3---------------------3-3-----3-3-----------------|
G|----0-0-----0-0---------------------0-0-----0-0-----------------|
D|----0-0-----0-0---------------0-----0-0-----0-0-----------------|
A|------------------0-2---3-2-0---------------------0-2---3--2--0-|
E|3-------3-3-----3-----3---------3-------3-3-----3-----3---------|


Verse:

e|----3-3-----3-3-----3-3-------------0-0-----0-------0-0---------|
B|----3-3-----3-3-----3-3-let ring----0-0-----0-------1-1---------|
G|----0-0-----0-0-----0-0-------------0-0-----0-------0-0---------|
D|----0-0-----0-0-----0-0-------------2-2-----2-------2-2-------2-|
A|------------------------------------2-2-----2-3---------3-2-0---|
E|3-------3-3-----3-------3---2---0-------0-0---------------------|
  Let us burn one from end to end,   and pass it over to me my friend         

 
e|----3-3-----3-3-----3-3-------------0-0-----0-------0-0---------|
B|----3-3-----3-3-----3-3-let ring----0-0-----0-------1-1---------|
G|----0-0-----0-0-----0-0-------------0-0-----0-------0-0---------|
D|----0-0-----0-0-----0-0-------------2-2-----2-------2-2-------2-|
A|------------------------------------2-2-----2-3---------3-2-0---|
E|3-------3-3-----3-------3---2---0-------0-0---------------------|
  Burn it long... and burn it slow         Just light me up before; I go...

Chorus:

e|----3-3-----3-3-----0-0-----0-0-----0-0-----2-2---------|
B|----3-3-----3-3-----0-0-----0-0-----0-0-----3-3---------|
G|----0-0-----0-0-----0-0-----0-0-----0-0-2---2-2---------|
D|----0-0-----0-0-----2-2-----2-2-----2-2-0---0-0-------2-|
A|--------------------2-2-----2-2-----2-2---------3-2-0---|
E|3-------3-3-----0-------0-0-----0-----------------------|
If you don't like my fire       Then don't come around


e|----3-3-----000-2-2-2-0-----------------|
B|----3-3-----000-3-3-3-0-1---------------|
G|----0-0-----000-2-2-2-0-0--let ring-----|
D|----0-0-----222-0-0-0-0-2---------------|
A|------------222---------3---------------|
E|3-------0-------------------------------|
Cause I'm gunna burn one down  Yes I'm gunna burn one down

Verse 2:
[ Tab from: http://www.guitartabs.cc/tabs/b/ben_harper/burn_one_down_tab_ver_2.html ]
e|----3-3-----3-3-----3-3-------------0-0-----0-------0-0---------|
B|----3-3-----3-3-----3-3-let ring----0-0-----0-------1-1---------|
G|----0-0-----0-0-----0-0-------------0-0-----0-------0-0---------|
D|----0-0-----0-0-----0-0-------------2-2-----2-------2-2-------2-|
A|------------------------------------2-2-----2-3---------3-2-0---|
E|3-------3-3-----3-------3---2---0-------0-0---------------------|
  My choice is what I choose to do. And if im causing no harm shouldn't bother you         

 
e|----3-3-----3-3-----3-3-------------0-0-----0-------0-0---------|
B|----3-3-----3-3-----3-3-let ring----0-0-----0-------1-1---------|
G|----0-0-----0-0-----0-0-------------0-0-----0-------0-0---------|
D|----0-0-----0-0-----0-0-------------2-2-----2-------2-2-------2-|
A|------------------------------------2-2-----2-3---------3-2-0---|
E|3-------3-3-----3-------3---2---0-------0-0---------------------|
  Your choice is what u chose to be, and if your causing no harm then your alright with me

Chorus:

e|----3-3-----3-3-----0-0-----0-0-----0-0-----2-2---------|
B|----3-3-----3-3-----0-0-----0-0-----0-0-----3-3---------|
G|----0-0-----0-0-----0-0-----0-0-----0-0-2---2-2---------|
D|----0-0-----0-0-----2-2-----2-2-----2-2-0---0-0-------2-|
A|--------------------2-2-----2-2-----2-2---------3-2-0---|
E|3-------3-3-----0-------0-0-----0-----------------------|


e|----3-3-----000-2-2-2-0-----------------|
B|----3-3-----000-3-3-3-0-1---------------|
G|----0-0-----000-2-2-2-0-0--let ring-----|
D|----0-0-----222-0-0-0-0-2---------------|
A|------------222---------3---------------|
E|3-------0-------------------------------|

Verse 3:

e|----3-3-----3-3-----3-3-------------0-0-----0-------0-0---------|
B|----3-3-----3-3-----3-3-let ring----0-0-----0-------1-1---------|
G|----0-0-----0-0-----0-0-------------0-0-----0-------0-0---------|
D|----0-0-----0-0-----0-0-------------2-2-----2-------2-2-------2-|
A|------------------------------------2-2-----2-3---------3-2-0---|
E|3-------3-3-----3-------3---2---0-------0-0---------------------|
  Herb the gift from the earth                is of the greatest worth
 And what is from the earth          

 
e|----3-3-----3-3-----3-3-------------0-0-----0-------0-0---------|
B|----3-3-----3-3-----3-3-let ring----0-0-----0-------1-1---------|
G|----0-0-----0-0-----0-0-------------0-0-----0-------0-0---------|
D|----0-0-----0-0-----0-0-------------2-2-----2-------2-2-------2-|
A|------------------------------------2-2-----2-3---------3-2-0---|
E|3-------3-3-----3------------3---2---0-------0-0----------------|
So before you knock it try it first. You'll see it's a blessing and not a curse

Chorus:

e|----3-3-----3-3-----0-0-----0-0-----0-0-----2-2---------|
B|----3-3-----3-3-----0-0-----0-0-----0-0-----3-3---------|
G|----0-0-----0-0-----0-0-----0-0-----0-0-2---2-2---------|
D|----0-0-----0-0-----2-2-----2-2-----2-2-0---0-0-------2-|
A|--------------------2-2-----2-2-----2-2---------3-2-0---|
E|3-------3-3-----0-------0-0-----0-----------------------|


e|----3-3-----000-2-2-2-0-----------------|
B|----3-3-----000-3-3-3-0-1---------------|
G|----0-0-----000-2-2-2-0-0--let ring-----|
D|----0-0-----222-0-0-0-0-2---------------|
A|------------222---------3---------------|
E|3-------0-------------------------------|
Comments