Ben Harper - Another Lonely Day Chords & Tabs

 

Another Lonely Day Chords & Tabs

Ben Harper Chords & Tabs

Version: 3 Type: Tab 0 ratings
1 star 2 stars 3 stars 4 stars 5 stars
comments

Another Lonely Day Tab

   
----------------------------------------------------------------------------
               ANOTHER LONELY DAY - Ben Harper                              
----------------------------------------------------------------------------

Tabbed by:Lucas Hennessey
Email:sk89186@aol.com

Tuning:D


Riff1    5x
e|---------------------------0-0-0-0-0-0-3-3-3-------|
B|-3--3--3-x-2-x-0-0-0-x-0-x-2-2-2-2-2-2-0-0-0-0-2-0-|
G|----2--2-x-0-x-2-2-2-x-2-x-2-2-2-2-2-2-0-0-0-------|
D|----0--0-x-0-x-2-2-2-x-2-x-------------0-0-0-------|
A|----1--1-x-1-x-1-1-1-x-1-x-------------0-0-0-------|
E|---------------------------------------3-3-3-------|

Riff2    4x
e|-1-1-1-1-1-1-------------3-3-3-3-3-3-3-3-3-3-3-3-|
B|-3-3-3-3-3-3-0-0-0-0-0-0-0-0-0-0-0-0-0-0-0-0-0-0-|
G|-3-3-3-3-3-3-2-2-2-2-2-2-0-0-0-0-2-0-0-2-0-0-2-0-|
D|-2-2-2-2-2-2-2-2-2-2-2-2-0-0-0-0-0-0-0-0-0-0-0-0-|
A|-1-1-1-1-1-1-1-1-1-1-1-1-0-0-0-0-0-0-0-0-0-0-0-0-|
E|-1-1-1-1-1-1-------------3-3-3-3-3-3-3-3-3-3-3-3-|

Riff1    3x
e|---------------------------0-0-0-0-0-0-3-3-3-------|
B|-3--3--3-x-2-x-0-0-0-x-0-x-2-2-2-2-2-2-0-0-0-0-2-0-|
G|----2--2-x-0-x-2-2-2-x-2-x-2-2-2-2-2-2-0-0-0-------|
D|----0--0-x-0-x-2-2-2-x-2-x-------------0-0-0-------|
A|----1--1-x-1-x-1-1-1-x-1-x-------------0-0-0-------|
E|---------------------------------------3-3-3-------|

Riff3
e|---------------------------------0-0-0-0-0-0-3-3-3-------|
B|-3--2--0-----3-x-2-x-0-0-0-x-0-x-2-2-2-2-2-2-0-0-0-0-2-0-|
G|--2--0--2----2-x-0-x-2-2-2-x-2-x-2-2-2-2-2-2-0-0-0-------|
D|---0--0--2---0-x-0-x-2-2-2-x-2-x-------------0-0-0-------|
A|----1--1--1--1-x-1-x-1-1-1-x-1-x-------------0-0-0-------|
E|---------------------------------------------3-3-3-------|
[ Tab from: http://www.guitartabs.cc/tabs/b/ben_harper/another_lonely_day_tab_ver_3.html ]
Riff2    4x
e|-1-1-1-1-1-1-------------3-3-3-3-3-3-3-3-3-3-3-3-|
B|-3-3-3-3-3-3-0-0-0-0-0-0-0-0-0-0-0-0-0-0-0-0-0-0-|
G|-3-3-3-3-3-3-2-2-2-2-2-2-0-0-0-0-2-0-0-2-0-0-2-0-|
D|-2-2-2-2-2-2-2-2-2-2-2-2-0-0-0-0-0-0-0-0-0-0-0-0-|
A|-1-1-1-1-1-1-1-1-1-1-1-1-0-0-0-0-0-0-0-0-0-0-0-0-|
E|-1-1-1-1-1-1-------------3-3-3-3-3-3-3-3-3-3-3-3-|

Riff1    4x
e|---------------------------0-0-0-0-0-0-3-3-3-------|
B|-3--3--3-x-2-x-0-0-0-x-0-x-2-2-2-2-2-2-0-0-0-0-2-0-|
G|----2--2-x-0-x-2-2-2-x-2-x-2-2-2-2-2-2-0-0-0-------|
D|----0--0-x-0-x-2-2-2-x-2-x-------------0-0-0-------|
A|----1--1-x-1-x-1-1-1-x-1-x-------------0-0-0-------|
E|---------------------------------------3-3-3-------|

Riff2    5x
e|-1-1-1-1-1-1-------------3-3-3-3-3-3-3-3-3-3-3-3-|
B|-3-3-3-3-3-3-0-0-0-0-0-0-0-0-0-0-0-0-0-0-0-0-0-0-|
G|-3-3-3-3-3-3-2-2-2-2-2-2-0-0-0-0-2-0-0-2-0-0-2-0-|
D|-2-2-2-2-2-2-2-2-2-2-2-2-0-0-0-0-0-0-0-0-0-0-0-0-|
A|-1-1-1-1-1-1-1-1-1-1-1-1-0-0-0-0-0-0-0-0-0-0-0-0-|
E|-1-1-1-1-1-1-------------3-3-3-3-3-3-3-3-3-3-3-3-|

Riff4
e|-1-1-1-1-1-1------------------3------|
B|-3-3-3-3-3-3-0-0--0--0--0--0---0-----|
G|-3-3-3-3-3-3-2-2--2--2--2--2----0----|
D|-2-2-2-2-2-2-2-2--2--2--2--2-----0---|
A|-1-1-1-1-1-1-1-1--1--1--1--1------0--|
E|-1-1-1-1-1-1-----------------------3-|

Lyrics:

Verse:
Yes indeed I'm alone again
and here comes emptiness crashing in
it's either love or hate 
I can't find in between
cause I've been with witches
and I have been with a queen

Chorus:
It wouldn't have worked out any way
so now it's just another lonely day
further along we just may
but for now it's just another lonely day

Verse:
Wish there was something 
I could say or do
I can resist anything
but temptation from you
but I'd rather walk alone
then chase you around
I'd rather fall myself 
then let you drag me down

Chorus:

Verse:
Yesterday seems like a life ago
cause the one I love 
today I hardly know
you I held so close in my heart oh dear
grow further from me 
with every fallen tear


| /  slide up
| \  slide down
| h  hammer-on
| p  pull-off
| ~  vibrato
| +  harmonic
| x  Mute note
============================================================================
Comments