Ben Gibbard - You Remind Me Of Home Chords & Tabs

 

You Remind Me Of Home Chords & Tabs

Ben Gibbard Chords & Tabs

Version: 1 Type: Chords 0 ratings
1 star 2 stars 3 stars 4 stars 5 stars
comments

You Remind Me Of Home Chords

   
You Remind Me of Home
Ben Gibbard / "Home Vol. 5"
Tabbed by: Keith Little (keith[at]thecorch.com)

The previously submitted tab for this song was based on a live performance.
This is the studio version which, evidently, is played a bit different.

Capo 2

G		   C      Am
You remind me of home: the paint cracks when the water leaks
 C						G
from the rusty pipes that are just beneath my feet.
 G		   D      Am
You remind me of home: the heater's warm but fills the room with a
 C                        G
potpourri of dust and gas fumes.

 G		   C      Am
You remind me of home: a broken bed with dirty sheets that creaks
 C                          G
when I am shifting in my sleep.
 G                 D	  Am
You remind me of home: in a suburban town with nothing to do,
 C                                     G
patiently waiting for something to happen.
[ Tab from: http://www.guitartabs.cc/tabs/b/ben_gibbard/you_remind_me_of_home_crd.html ]
 Em      G           (Riff I)  		
But the foundation is crumbling   
 Em    	 G          (Riff II)
and becoming one with the ground
 Em      	G      (Riff I)
while you lay there in slumber...
 Em      	G      (Riff III)
You're wasting your life. Wasting your life. (repeat)

 G                 C    Am
You remind me of home: sitting on a thrift store couch,
 C			G
I'm trying to get this all down

 
Riff I

E|-------------------------|
B|--------------------1-0--|
G|-------2--0--------------|
D|-----0-----------2-------|
A|---2-----------3---------|
E|-------------------------|
"...foundation is crumbling"

Riff II

E|-------------------------|
B|---------------------0---|
G|-------2--0--------2-----|
D|-----0-----------2-------|
A|---2-----------3---------|
E|-------------------------|
"...with the ground"


Riff III

E|-------------------------|
B|---------------------0---|
G|-------2--0--------3-----|
D|-----0-----------2-------|
A|---2-----------3---------|
E|-------------------------|
"...wasting your life" (x5)

E|-------------------------|
B|-------------------------|
G|-------2--0--------3-0---|
D|-----0-----------2-------|
A|---2-----------3---------|
E|-------------------------|
"...wasting your life"
Comments