Ben Gibbard - Lovely Affair Chords & Tabs

 

Lovely Affair Chords & Tabs

Ben Gibbard Chords & Tabs

Version: 1 Type: Tab

Lovely Affair Tab

-------------------------------------------------------------------------
=========================================================================
-------------------------------------------------------------------------
                  Ben Gibbard - Lovely Affair
                  Tabbed by Lance of Lockwood
                       Standard Tuning
-------------------------------------------------------------------------
=========================================================================
-------------------------------------------------------------------------

Verse

e|--------------------------|
b|--------------------------|
g|----4-----4------3-----3--|
d|---4-4---4-4----4-4---4-4-|
a|-2------------------------|
E|-------4------2-----2-----|

interlude

e|--4--2---                                 --x--2-|
b|--5--2---                                 --x--2-|
g|--6--3---                                 --4--3-|
d|--6--4---then at long interlude you add a --4--4-|
a|--4--4---                                 --2--4-|
E|--x--2---                                 --x--2-|
[ Tab from: http://www.guitartabs.cc/tabs/b/ben_gibbard/lovely_affair_tab.html ]