Ben Folds Five - Your Redneck Past Chords & Tabs

 

Your Redneck Past Chords & Tabs

Ben Folds Five Chords & Tabs

Version: 1 Type: Bass Tab 0 ratings
1 star 2 stars 3 stars 4 stars 5 stars
comments

Your Redneck Past Bass Tab

   
"Your Redneck Past" by Ben Folds Five
Tabbed By Tim Swan

This song is played on a syth bass keyboard so there are some parts
that are just too hard to figure out on Bass.  There is one part on the
bridge where you play a low E flat.  I just put that up an octave
because I don't like to tune down my bass. 

Intro - Repeat a few times.
G-----------------------------------------
D-------------------1-3-4-4-4-4-4-4-4-4-4-
A-2-2-2-2---------4-----------------------
E---------4-4-4-4-------------------------
Then - "La la la la la"
G------------------
D------------------
A------------------
E-2-2-2-2-4-4-4-4--

Lead into Verse
G----------------------------------
D----------------------------------
A-6-6---6-6-6---6--6-6---6-6-6-6-6-
E-----6-------6--------6-----------

Verse -  "Choose..."
G-------------------------------------------------------------------
D-------------------------------------------------------------------
A-6-6---6-6-6---6--6-6---6-6-6---6-4-4---4-4-4-4-4--4-4---4-4-4-4-4-
E-----6-------6--------6-------6-------4----------------4-----------
[ Tab from: http://www.guitartabs.cc/tabs/b/ben_folds_five/your_redneck_past_btab.html ]
G-------------------------------------------------------------------
D-------------------------------------------------------------------
A-6-6---6-6-6---6--6-6---6-6-6---6-4-4---4-4-4-4-4--4-4---4-4-4-4-4-
E-----6-------6--------6-------6-------4----------------4-----------

Chorus
Play twice
G--------------------------------------------------------
D-------------------1-3-4-4-4-4---------4-4-4-4----------
A-2-2-2-2---------4--------------------------------------
E---------4-4-4-4---------------2-2-2-2---------2-2-2-2--

then "They'll never send you..."
G-----------------
D-----------------
A-----------------
E-2-2-2-2-4-4-4-4-

Bridge
G-----------------------------------------------------------------
D-----------------------------------------------------------------
A-6-6---6-6-6-6-6-6-6---6-6-6-6-6-4-4---4-4-4-4-4-4-4---4-4-4-4-4-
E-----6---------------6---------------4---------------4-----------

G-----------------------------------------------------------------
D-----------------------------------------------------------------
A-6-6---6-6-6-6-6-3-3-3-3-3-3-3-3-4-4---4-4-4-4-4-4-4---4-4-4-4-4-
E-----6-------------------------------4---------------4-----------

G---------------------------------------------------------------
D---------------------------------------------------------------
A-2-2---2-2-2-2-2-2-2-2-2-2-2-2-6-6-6-6-6-6-6-6-6-6-6-6-6-6-6-6-
E-----2---------------------------------------------------------

G-----------------
D-----------------
A-4-4-4-4---------
E---------1-1-1-1-


Thats the whole song in a nutshell.

rock1813@hotmail.com
Comments