Ben Folds Five - Wheres Summer B Chords & Tabs

 

Wheres Summer B Chords & Tabs

Ben Folds Five Chords & Tabs

Version: 1 Type: Bass Tab 0 ratings
1 star 2 stars 3 stars 4 stars 5 stars
comments

Wheres Summer B Bass Tab

   
"Where's Summer B.?" by Ben Folds Five
Tabbed by Tim Swan

Intro - Play four times.
G--------------
D--------------
A---------5-7--
E-0-5-6-7------

Verse Part One - "I'd like to tell you..." Play 6 times.  Drop the first note the first time through
G--------------
D-------4-2-2--
A--------------
E-3-0-0--------

Verse Part Two - "Daves been a mess since Cherly left..." Play 3 times 
G----------------------
D---------7--5-5-5--5--
A-5-5-5--5-----------7-
E----------------------
[ Tab from: http://www.guitartabs.cc/tabs/b/ben_folds_five/wheres_summer_b_btab.html ]
Chorus - "Ahhh Ahhhh..."
G-----------------------------------
D-------------------------2-2-------
A-3-3-3-3-5-5-5-5-2-2-2-2-----5-5---
E-----------------------------------
Play 3 times then...

"Hey Summer where you been?"
G---------------------------------
D---------------------------------
A-3-3-3-3-3-3-3-3-5-5-5-5-5-5-5-5-
E---------------------------------

Main part

Verse 1 & 2

Chorus

Bridge - "I could take a train..."  Hold all notes.
G------------------
D-------5-----3------
A----5-----3---------
E-5-----------------

Main Part

Then...
G-------------------------
D-------------------------
A-------------------------
E-0-0---0-0---0-0---0-0---

Chorus

Main Part to the End

rock1813@hotmail.com
Comments