Ben Folds Five - Tom And Mary Chords & Tabs

 

Tom And Mary Chords & Tabs

Ben Folds Five Chords & Tabs

Version: 1 Type: Bass Tab 0 ratings
1 star 2 stars 3 stars 4 stars 5 stars
comments

Tom And Mary Bass Tab

"Tom and Mary" by Ben Folds Five
Tabbed by Tim Swan

Intro - Play 4 times
G--------------------
D--------------------
A--------------------
E-0-0-4-4-5-5-7------

Verse
G-------------------------------------------------------------------
D-------------------------------------------------------------------
S--------------------------------------------------------0-2-2-2-2--
E-0-0-4-4-5-5-7-7--0-0-4-4-5-5-7-7--0-0-4-4-5-5-7-7--2-2------------


G--------------------------------------------------------------
D-----------------------------------------7-5------9-7---------
A-------------------------------9-7---3-3------5-5-----7-7-7-7-
E-0-0-4-4-5-5-7-7--0-2-3-4--5-5--------------------------------
[ Tab from: http://www.guitartabs.cc/tabs/b/ben_folds_five/tom_and_mary_btab.html ]
Bridge - "Miss Powers son..."
G------------------------------------------------------------------
D-7-7-5-5-4-4-----7-7-5-5-4-4--------------------------------------
A-------------7-5-------------5-6-7-7-5-5-4-4----------------------
E----------------------------------------------7-5-4-4-4-4-4-4-4-4-

G---------------------------------------------
D-7-7-5-5-4-4---------------------------------
A-------------7-5-----5-5-4-4-----------------
E-----------------8-8---------5-6-7-8-9-10-11-

Slow Sound effects part - This is not all of it but it is the basics, 
also it might be an octave to high.

G-6-9-9-6-9-9-6-9-9-66-9-9-66-9-9-56-9-9-56-9-9-65-----65--------
D----------------------------------------------------------------
A--------------------------------------------------7-7----7-7----
E----------------------------------------------------------------

after this go back to the main part.
Fun Song.

rock1813@hotmail.com
Comments